  0
SECTION
  2
HEADER
  9
$ACADVER
  1
AC1009
  9
$INSBASE
 10
0
 20
0
 30
0
  9
$EXTMIN
 10
0
 20
0
  9
$EXTMAX
 10
420
 20
297
  9
$LIMMIN
 10
0
 20
0
  9
$LIMMAX
 10
420
 20
297
  9
$LTSCALE
 40
1
  0
ENDSEC
  0
SECTION
  2
TABLES
  0
TABLE
  2
LTYPE
 70
     9
  0
LTYPE
  2
CONTINUOUS
 70
    64
  3
実線
 72
    65
 73
     0
 40
0.0
  0
LTYPE
  2
DASHED1
 70
    64
  3
--  --  --  --  --  --  --  --  
 72
    65
 73
     2
 40
2.5
 49
1.25
 49
-1.25
  0
LTYPE
  2
DASHED2
 70
    64
  3
----    ----    ----    ----    
 72
    65
 73
     2
 40
5.0
 49
2.5
 49
-2.5
  0
LTYPE
  2
DASHED3
 70
    64
  3
------  ------  ------  ------  
 72
    65
 73
     2
 40
5.0
 49
3.75
 49
-1.25
  0
LTYPE
  2
CENTER1
 70
    64
  3
----- - ----- - ----- - ----- - 
 72
    65
 73
     4
 40
10.0
 49
6.25
 49
-1.25
 49
1.25
 49
-1.25
  0
LTYPE
  2
CENTER2
 70
    64
  3
----------  --  ----------  --  
 72
    65
 73
     4
 40
20.0
 49
12.5
 49
-2.5
 49
2.5
 49
-2.5
  0
LTYPE
  2
PHANTOM1
 70
    64
  3
--- - - --- - - --- - - --- - - 
 72
    65
 73
     6
 40
10.0
 49
3.25
 49
-1.25
 49
1.25
 49
-1.25
 49
1.25
 49
-1.25
  0
LTYPE
  2
PHANTOM2
 70
    64
  3
--------  -  -  --------  -  -  
 72
    65
 73
     6
 40
20.0
 49
10.0
 49
-2.5
 49
1.25
 49
-2.5
 49
1.25
 49
-2.5
  0
LTYPE
  2
DOT
 70
    64
  3
-   -   -   -   -   -   -   -   
 72
    65
 73
     2
 40
2.5
 49
0.625
 49
-1.875
  0
LTYPE
  2
DUMMY
 70
    64
  3
ダミー
 72
    65
 73
     0
 40
0.0
  0
LTYPE
  2
RAND1
 70
    64
  3
ランダム線1
 72
    65
 73
     4
 40
10.0
 49
1.0
 49
-2.0
 49
3.0
 49
-4.0
  0
LTYPE
  2
RAND2
 70
    64
  3
ランダム線2
 72
    65
 73
     4
 40
14.0
 49
2.0
 49
-3.0
 49
4.0
 49
-5.0
  0
LTYPE
  2
RAND3
 70
    64
  3
ランダム線3
 72
    65
 73
     4
 40
18.0
 49
3.0
 49
-4.0
 49
5.0
 49
-6.0
  0
LTYPE
  2
RAND4
 70
    64
  3
ランダム線4
 72
    65
 73
     4
 40
22.0
 49
4.0
 49
-5.0
 49
6.0
 49
-7.0
  0
LTYPE
  2
RAND5
 70
    64
  3
ランダム線5
 72
    65
 73
     4
 40
26.0
 49
5.0
 49
-6.0
 49
7.0
 49
-8.0
  0
LTYPE
  2
LONG1
 70
    64
  3
----------  --  ----------  --  
 72
    65
 73
     4
 40
40.0
 49
32.5
 49
-2.5
 49
2.5
 49
-2.5
  0
LTYPE
  2
LONG2
 70
    64
  3
--------  -  -  --------  -  -  
 72
    65
 73
     6
 40
40.0
 49
30.0
 49
-2.5
 49
1.25
 49
-2.5
 49
1.25
 49
-2.5
  0
LTYPE
  2
LONG3
 70
    64
  3
+++++++++++++++..+++++++++++++++
 72
    65
 73
     2
 40
40.0
 49
37.5
 49
-2.5
  0
LTYPE
  2
LONG4
 70
    64
  3
+++++++++++++++..+++++++++++++++
 72
    65
 73
     2
 40
80.0
 49
75.0
 49
-5.0
  0
LTYPE
  2
LONG5
 70
    64
  3
----------  --  ----------  --  
 72
    65
 73
     4
 40
60.0
 49
37.5
 49
-7.5
 49
7.5
 49
-7.5
  0
LTYPE
  2
dashed
 70
   64
  3
-------   -------------   ------
 72
   65
 73
    2
 40
7.5
 49
6
 49
-1.5
  0
LTYPE
  2
dashed_spaced
 70
   64
  3
----        --------        ----
 72
   65
 73
    2
 40
12
 49
6
 49
-6
  0
LTYPE
  2
long_dashed_dotted
 70
   64
  3
------------- --- --------------
 72
   65
 73
    4
 40
15.25
 49
12
 49
-1.5
 49
0.25
 49
-1.5
  0
LTYPE
  2
long_dashed_double-dotted
 70
   64
  3
----------- --- --- ------------
 72
   65
 73
    6
 40
17
 49
12
 49
-1.5
 49
0.25
 49
-1.5
 49
0.25
 49
-1.5
  0
LTYPE
  2
long_dashed_triplicate-dotted
 70
   64
  3
--------- --- --- --- ----------
 72
   65
 73
    8
 40
18.75
 49
12
 49
-1.5
 49
0.25
 49
-1.5
 49
0.25
 49
-1.5
 49
0.25
 49
-1.5
  0
LTYPE
  2
dotted
 70
   64
  3
   -       -       -       -    
 72
   65
 73
    2
 40
1.75
 49
0.25
 49
-1.5
  0
LTYPE
  2
chain
 70
   64
  3
-------------- -- --------------
 72
   65
 73
    4
 40
18.5
 49
12
 49
-1.5
 49
3.5
 49
-1.5
  0
LTYPE
  2
chain_double_dash
 70
   64
  3
------------ -- -- -------------
 72
   65
 73
    6
 40
23.5
 49
12
 49
-1.5
 49
3.5
 49
-1.5
 49
3.5
 49
-1.5
  0
LTYPE
  2
dashed_dotted
 70
   64
  3
-----------     -     ----------
 72
   65
 73
    4
 40
9.25
 49
6
 49
-1.5
 49
0.25
 49
-1.5
  0
LTYPE
  2
double-dashed_dotted
 70
   64
  3
------   -----------   -   -----
 72
   65
 73
    6
 40
16.75
 49
6
 49
-1.5
 49
6
 49
-1.5
 49
0.25
 49
-1.5
  0
LTYPE
  2
dashed_double-dotted
 70
   64
  3
---------    -    -    ---------
 72
   65
 73
    6
 40
11
 49
6
 49
-1.5
 49
0.25
 49
-1.5
 49
0.25
 49
-1.5
  0
LTYPE
  2
double-dashed_double-dotted
 70
   64
  3
-----   ---------   -   -   ----
 72
   65
 73
    8
 40
18.5
 49
6
 49
-1.5
 49
6
 49
-1.5
 49
0.25
 49
-1.5
 49
0.25
 49
-1.5
  0
LTYPE
  2
dashed_triplicate-dotted
 70
   64
  3
-------    -    -    -    ------
 72
   65
 73
    8
 40
12.75
 49
6
 49
-1.5
 49
0.25
 49
-1.5
 49
0.25
 49
-1.5
 49
0.25
 49
-1.5
  0
LTYPE
  2
double-dashed_triplicate-dotted
 70
   64
  3
-----  ---------  -  -  -  -----
 72
   65
 73
   10
 40
20.25
 49
6
 49
-1.5
 49
6
 49
-1.5
 49
0.25
 49
-1.5
 49
0.25
 49
-1.5
 49
0.25
 49
-1.5
  0
LTYPE
  2
undefined
 70
   64
  3
--------------------------------
 72
   65
 73
    0
 40
0
  0
ENDTAB
  0
TABLE
  2
STYLE
  5
3
100
AcDbSymbolTable
 70
     1
  0
STYLE
  5
10
100
AcDbSymbolTableRecord
100
AcDbTextStyleTableRecord
  2
STANDARD
 70
     0
 40
0.0
 41
1.0
 50
0.0
 71
     0
 42
0.2
  3
txt
  4
bigfont.shx
  0
STYLE
  5
26
100
AcDbSymbolTableRecord
100
AcDbTextStyleTableRecord
  2
TATEGAKI
 70
    68
 40
0.0
 41
1.0
 50
0.0
 71
     0
 42
1.0
  3
txt
  4
bigfont.shx
  0
ENDTAB
  0
TABLE
  2
LAYER
 70
    4
  0
LAYER
  2
_0-1_
 70
   64
 62
    7
  6
CONTINUOUS
  0
LAYER
  2
_1-1_
 70
   64
 62
    7
  6
CONTINUOUS
  0
LAYER
  2
_1-2_
 70
   64
 62
    7
  6
CONTINUOUS
  0
LAYER
  2
ADD_LINE
 70
   64
 62
    7
  6
CONTINUOUS
  0
ENDTAB
  0
ENDSEC
  0
SECTION
  2
BLOCKS
  0
ENDSEC
  0
SECTION
  2
ENTITIES
  0
LINE
  8
_0-1_
  6
CONTINUOUS
 62
    3
 10
109.91378294262526
 20
10.082039243805809
 11
109.59104797587588
 21
10.082039243805809
  0
LINE
  8
_0-1_
  6
CONTINUOUS
 62
    3
 10
109.59104797587588
 20
10.082039243805809
 11
109.59104797587588
 21
280.35561316697232
  0
LINE
  8
_0-1_
  6
CONTINUOUS
 62
    3
 10
289.74820746365236
 20
280.35561316697232
 11
289.74820746365236
 21
10.082039243805809
  0
LINE
  8
_0-1_
  6
CONTINUOUS
 62
    3
 10
109.59104797587588
 20
280.35561316697232
 11
289.74820746365236
 21
280.35561316697232
  0
LINE
  8
_0-1_
  6
CONTINUOUS
 62
    3
 10
289.74820746365236
 20
10.082039243805809
 11
109.59104797587588
 21
10.082039243805809
  0
LINE
  8
_0-1_
  6
CONTINUOUS
 62
    3
 10
289.74820746365236
 20
25.082039243805809
 11
109.59104797587588
 21
25.082039243805809
  0
LINE
  8
_0-1_
  6
CONTINUOUS
 62
    3
 10
169.59104797587588
 20
10.082039243805809
 11
169.59104797587588
 21
25.082039243805809
  0
LINE
  8
_0-1_
  6
CONTINUOUS
 62
    3
 10
229.59104797587588
 20
10.082039243805809
 11
229.59104797587588
 21
25.082039243805809
  0
TEXT
  8
_0-1_
 62
    7
 10
111.53633893959282
 20
21.577207655443985
 40
2
 41
1
 50
0
  1
ＴＩＴＬＥ
  0
TEXT
  8
_0-1_
 62
    7
 10
171.46168920362626
 20
21.325420469460653
 40
2
 41
1
 50
0
  1
ＭＯＤＥＬ
  0
TEXT
  8
_0-1_
 62
    7
 10
236.24586551082081
 20
15.198940813772481
 40
4
 41
1
 50
0
  1
日伸制御機工株式会社
  0
TEXT
  8
_1-1_
 62
    7
 10
207.3519062910168
 20
195.38891682359946
 40
3
 41
1
 50
90
  1
6
  0
TEXT
  8
_1-1_
 62
    7
 10
206.78665248313541
 20
128.80611214553892
 40
3
 41
1
 50
89.999999999999986
  1
25MIN
  0
TEXT
  8
_1-1_
 62
    7
 10
162.57621798091412
 20
135.13891682359946
 40
3
 41
1
 50
0
  1
φ0.6
  0
TEXT
  8
_1-1_
 62
    7
 10
183.81660288286238
 20
172.73767894752908
 40
3
 41
1
 50
0
  1
22
  0
TEXT
  8
_1-1_
 62
    7
 10
207.3519062910168
 20
153.51391682359946
 40
3
 41
1
 50
90
  1
14
  0
TEXT
  8
_1-1_
 62
    7
 10
181.6019062910168
 20
111.63891682359946
 40
3
 41
1
 50
0
  1
19±1
  0
TEXT
  8
_0-1_
 62
    7
 10
115.32596685082873
 20
31.549723756906076
 40
4
 41
1
 50
0
  1
同一形状：SQ11120TF,SQ11150TF,SQ21120TF,SQ21150TF
  0
TEXT
  8
_0-1_
 62
    7
 10
186.33149171270719
 20
15.306629834254153
 40
4
 41
1
 50
0
  1
SQ11120TF
  0
TEXT
  8
_0-1_
 62
    7
 10
119.50276243093923
 20
15.306629834254153
 40
4
 41
1
 50
0
  1
スパークケンチャー
  0
LINE
  8
_1-1_
  6
CONTINUOUS
 62
    4
 10
207.8519062910168
 20
147.13891682359946
 11
207.33426820081172
 21
149.07076847617762
  0
LINE
  8
_1-1_
  6
CONTINUOUS
 62
    4
 10
207.8519062910168
 20
147.13891682359946
 11
208.36954438122183
 21
149.07076847617762
  0
LINE
  8
_1-1_
  6
CONTINUOUS
 62
    4
 10
207.8519062910168
 20
147.13891682359946
 11
197.8519062910168
 21
147.13891682359946
  0
LINE
  8
_1-1_
  6
CONTINUOUS
 62
    4
 10
207.8519062910168
 20
147.13891682359946
 11
207.33426820081172
 21
145.20706517102133
  0
LINE
  8
_1-1_
  6
CONTINUOUS
 62
    4
 10
207.8519062910168
 20
147.13891682359946
 11
208.36954438122183
 21
145.20706517102133
  0
LINE
  8
_1-1_
  6
CONTINUOUS
 62
    4
 10
207.8519062910168
 20
147.13891682359946
 11
197.8519062910168
 21
147.13891682359946
  0
LINE
  8
_1-1_
  6
CONTINUOUS
 62
    4
 10
207.8519062910168
 20
193.13891682359946
 11
207.8519062910168
 21
199.13891682359946
  0
LINE
  8
_1-1_
  6
CONTINUOUS
 62
    4
 10
207.8519062910168
 20
193.13891682359946
 11
207.33426820081175
 21
195.07076847617759
  0
LINE
  8
_1-1_
  6
CONTINUOUS
 62
    4
 10
207.8519062910168
 20
193.13891682359946
 11
208.36954438122186
 21
195.07076847617759
  0
LINE
  8
_1-1_
  6
CONTINUOUS
 62
    4
 10
207.8519062910168
 20
199.13891682359946
 11
207.33426820081175
 21
197.20706517102133
  0
LINE
  8
_1-1_
  6
CONTINUOUS
 62
    4
 10
207.8519062910168
 20
199.13891682359946
 11
208.36954438122186
 21
197.20706517102133
  0
LINE
  8
_1-1_
  6
CONTINUOUS
 62
    4
 10
207.8519062910168
 20
193.13891682359946
 11
197.8519062910168
 21
193.13891682359946
  0
LINE
  8
_1-1_
  6
CONTINUOUS
 62
    4
 10
207.8519062910168
 20
199.13891682359946
 11
197.8519062910168
 21
199.13891682359946
  0
LINE
  8
_1-1_
  6
CONTINUOUS
 62
    4
 10
207.8519062910168
 20
122.13891682359946
 11
207.33426820081172
 21
124.07076847617762
  0
LINE
  8
_1-1_
  6
CONTINUOUS
 62
    4
 10
207.8519062910168
 20
122.13891682359946
 11
208.36954438122183
 21
124.07076847617762
  0
LINE
  8
_1-1_
  6
CONTINUOUS
 62
    4
 10
207.8519062910168
 20
122.13891682359946
 11
197.8519062910168
 21
122.13891682359946
  0
LINE
  8
_1-1_
  6
CONTINUOUS
 62
    4
 10
207.8519062910168
 20
122.13891682359946
 11
207.8519062910168
 21
147.13891682359946
  0
LINE
  8
_1-1_
  6
CONTINUOUS
 62
    4
 10
176.65190629101681
 20
134.63891682359946
 11
176.05190629101679
 21
134.63891682359946
  0
LINE
  8
_1-1_
  6
CONTINUOUS
 62
    4
 10
176.65190629101681
 20
134.63891682359946
 11
178.58375794359495
 21
135.15655491380451
  0
LINE
  8
_1-1_
  6
CONTINUOUS
 62
    4
 10
176.65190629101681
 20
134.63891682359946
 11
178.58375794359495
 21
134.1212787333944
  0
LINE
  8
_1-1_
  6
CONTINUOUS
 62
    4
 10
176.05190629101679
 20
134.63891682359946
 11
174.12005463843866
 21
135.15655491380451
  0
LINE
  8
_1-1_
  6
CONTINUOUS
 62
    4
 10
176.05190629101679
 20
134.63891682359946
 11
174.12005463843866
 21
134.1212787333944
  0
LINE
  8
_1-1_
  6
CONTINUOUS
 62
    4
 10
161.10798593671521
 20
134.63891682359946
 11
176.05190629101679
 21
134.63891682359946
  0
LINE
  8
_1-1_
  6
CONTINUOUS
 62
    4
 10
196.8519062910168
 20
172.13891682359946
 11
174.8519062910168
 21
172.13891682359946
  0
LINE
  8
_1-1_
  6
CONTINUOUS
 62
    4
 10
196.8519062910168
 20
172.13891682359946
 11
194.92005463843861
 21
172.65655491380451
  0
LINE
  8
_1-1_
  6
CONTINUOUS
 62
    4
 10
196.8519062910168
 20
172.13891682359946
 11
194.92005463843861
 21
171.62127873339443
  0
LINE
  8
_1-1_
  6
CONTINUOUS
 62
    4
 10
196.8519062910168
 20
172.13891682359946
 11
196.8519062910168
 21
162.13891682359946
  0
LINE
  8
_1-1_
  6
CONTINUOUS
 62
    4
 10
174.8519062910168
 20
172.13891682359946
 11
174.8519062910168
 21
162.13891682359946
  0
LINE
  8
_1-1_
  6
CONTINUOUS
 62
    4
 10
174.8519062910168
 20
172.13891682359946
 11
176.78375794359488
 21
171.62127873339443
  0
LINE
  8
_1-1_
  6
CONTINUOUS
 62
    4
 10
174.8519062910168
 20
172.13891682359946
 11
176.78375794359488
 21
172.65655491380451
  0
LINE
  8
_1-1_
  6
CONTINUOUS
 62
    4
 10
207.8519062910168
 20
161.13891682359946
 11
207.33426820081172
 21
159.20706517102133
  0
LINE
  8
_1-1_
  6
CONTINUOUS
 62
    4
 10
207.8519062910168
 20
161.13891682359946
 11
208.36954438122183
 21
159.20706517102133
  0
LINE
  8
_1-1_
  6
CONTINUOUS
 62
    4
 10
207.8519062910168
 20
161.13891682359946
 11
197.8519062910168
 21
161.13891682359946
  0
LINE
  8
_1-1_
  6
CONTINUOUS
 62
    4
 10
207.8519062910168
 20
147.13891682359946
 11
207.8519062910168
 21
161.13891682359946
  0
LINE
  8
_1-1_
  6
CONTINUOUS
 62
    4
 10
176.3519062910168
 20
111.13891682359946
 11
195.3519062910168
 21
111.13891682359946
  0
LINE
  8
_1-1_
  6
CONTINUOUS
 62
    4
 10
176.3519062910168
 20
111.13891682359946
 11
178.28375794359494
 21
111.6565549138045
  0
LINE
  8
_1-1_
  6
CONTINUOUS
 62
    4
 10
176.3519062910168
 20
111.13891682359946
 11
178.28375794359494
 21
110.62127873339442
  0
LINE
  8
_1-1_
  6
CONTINUOUS
 62
    4
 10
195.3519062910168
 20
111.13891682359946
 11
193.42005463843867
 21
111.6565549138045
  0
LINE
  8
_1-1_
  6
CONTINUOUS
 62
    4
 10
195.3519062910168
 20
111.13891682359946
 11
193.42005463843867
 21
110.62127873339442
  0
LINE
  8
_1-1_
  6
CONTINUOUS
 62
    4
 10
176.3519062910168
 20
111.13891682359946
 11
176.3519062910168
 21
121.13891682359946
  0
LINE
  8
_1-1_
  6
CONTINUOUS
 62
    4
 10
195.3519062910168
 20
111.13891682359946
 11
195.3519062910168
 21
121.13891682359946
  0
LINE
  8
_1-2_
  6
CONTINUOUS
 62
    6
 10
176.65190629101681
 20
147.13891682359946
 11
176.65190629101681
 21
122.13891682359946
  0
LINE
  8
_1-2_
  6
CONTINUOUS
 62
    6
 10
196.8519062910168
 20
199.13891682359946
 11
196.8519062910168
 21
193.13891682359946
  0
LINE
  8
_1-2_
  6
CONTINUOUS
 62
    6
 10
174.8519062910168
 20
199.13891682359946
 11
174.8519062910168
 21
193.13891682359946
  0
LINE
  8
_1-2_
  6
CONTINUOUS
 62
    6
 10
174.8519062910168
 20
199.13891682359946
 11
196.8519062910168
 21
199.13891682359946
  0
LINE
  8
_1-2_
  6
CONTINUOUS
 62
    6
 10
174.8519062910168
 20
193.13891682359946
 11
196.8519062910168
 21
193.13891682359946
  0
LINE
  8
_1-2_
  6
CONTINUOUS
 62
    6
 10
174.8519062910168
 20
147.13891682359946
 11
196.8519062910168
 21
147.13891682359946
  0
LINE
  8
_1-2_
  6
CONTINUOUS
 62
    6
 10
227.3519062910168
 20
147.13891682359946
 11
233.3519062910168
 21
147.13891682359946
  0
LINE
  8
_1-2_
  6
CONTINUOUS
 62
    6
 10
230.00190629101678
 20
122.13891682359946
 11
230.70190629101677
 21
122.13891682359946
  0
LINE
  8
_1-2_
  6
CONTINUOUS
 62
    6
 10
230.00190629101678
 20
147.13891682359946
 11
230.00190629101678
 21
122.13891682359946
  0
LINE
  8
_1-2_
  6
CONTINUOUS
 62
    6
 10
230.70190629101677
 20
147.13891682359946
 11
230.70190629101677
 21
122.13891682359946
  0
LINE
  8
_1-2_
  6
CONTINUOUS
 62
    6
 10
176.05190629101679
 20
122.13891682359946
 11
176.65190629101681
 21
122.13891682359946
  0
LINE
  8
_1-2_
  6
CONTINUOUS
 62
    6
 10
195.05190629101679
 20
122.13891682359946
 11
195.65190629101681
 21
122.13891682359946
  0
LINE
  8
_1-2_
  6
CONTINUOUS
 62
    6
 10
176.05190629101679
 20
147.13891682359946
 11
176.05190629101679
 21
122.13891682359946
  0
LINE
  8
_1-2_
  6
CONTINUOUS
 62
    6
 10
195.05190629101679
 20
147.13891682359946
 11
195.05190629101679
 21
122.13891682359946
  0
LINE
  8
_1-2_
  6
CONTINUOUS
 62
    6
 10
195.65190629101681
 20
147.13891682359946
 11
195.65190629101681
 21
122.13891682359946
  0
LINE
  8
_1-2_
  6
CONTINUOUS
 62
    6
 10
174.8519062910168
 20
161.13891682359946
 11
196.8519062910168
 21
161.13891682359946
  0
LINE
  8
_1-2_
  6
CONTINUOUS
 62
    6
 10
227.3519062910168
 20
161.13891682359946
 11
233.3519062910168
 21
161.13891682359946
  0
LINE
  8
_1-2_
  6
CONTINUOUS
 62
    6
 10
174.8519062910168
 20
161.13891682359946
 11
174.8519062910168
 21
147.13891682359946
  0
LINE
  8
_1-2_
  6
CONTINUOUS
 62
    6
 10
196.8519062910168
 20
161.13891682359946
 11
196.8519062910168
 21
147.13891682359946
  0
LINE
  8
_1-2_
  6
CONTINUOUS
 62
    6
 10
227.3519062910168
 20
161.13891682359946
 11
227.3519062910168
 21
147.13891682359946
  0
LINE
  8
_1-2_
  6
CONTINUOUS
 62
    6
 10
233.3519062910168
 20
161.13891682359946
 11
233.3519062910168
 21
147.13891682359946
  0
LINE
  8
_1-2_
  6
DASHED1
 62
    4
 10
192.8519062910168
 20
156.13891682359946
 11
192.8519062910168
 21
152.13891682359946
  0
LINE
  8
_1-2_
  6
DASHED1
 62
    4
 10
178.8519062910168
 20
156.13891682359946
 11
178.8519062910168
 21
152.13891682359946
  0
LINE
  8
_1-2_
  6
DASHED1
 62
    4
 10
178.8519062910168
 20
156.13891682359946
 11
192.8519062910168
 21
156.13891682359946
  0
LINE
  8
_1-2_
  6
DASHED1
 62
    4
 10
178.8519062910168
 20
152.13891682359946
 11
192.8519062910168
 21
152.13891682359946
  0
TEXT
  8
_1-2_
 62
    7
 10
183.08539794267574
 20
152.90407295436469
 40
2.5
 41
1
 50
0
  1
型式
  0
ENDSEC
  0
EOF
