  0
SECTION
  2
HEADER
  9
$ACADVER
  1
AC1009
  9
$INSBASE
 10
0
 20
0
 30
0
  9
$EXTMIN
 10
0
 20
0
  9
$EXTMAX
 10
420
 20
297
  9
$LIMMIN
 10
0
 20
0
  9
$LIMMAX
 10
420
 20
297
  9
$LTSCALE
 40
1
  0
ENDSEC
  0
SECTION
  2
TABLES
  0
TABLE
  2
LTYPE
 70
     9
  0
LTYPE
  2
CONTINUOUS
 70
    64
  3
実線
 72
    65
 73
     0
 40
0.0
  0
LTYPE
  2
DASHED1
 70
    64
  3
--  --  --  --  --  --  --  --  
 72
    65
 73
     2
 40
2.5
 49
1.25
 49
-1.25
  0
LTYPE
  2
DASHED2
 70
    64
  3
----    ----    ----    ----    
 72
    65
 73
     2
 40
5.0
 49
2.5
 49
-2.5
  0
LTYPE
  2
DASHED3
 70
    64
  3
------  ------  ------  ------  
 72
    65
 73
     2
 40
5.0
 49
3.75
 49
-1.25
  0
LTYPE
  2
CENTER1
 70
    64
  3
----- - ----- - ----- - ----- - 
 72
    65
 73
     4
 40
10.0
 49
6.25
 49
-1.25
 49
1.25
 49
-1.25
  0
LTYPE
  2
CENTER2
 70
    64
  3
----------  --  ----------  --  
 72
    65
 73
     4
 40
20.0
 49
12.5
 49
-2.5
 49
2.5
 49
-2.5
  0
LTYPE
  2
PHANTOM1
 70
    64
  3
--- - - --- - - --- - - --- - - 
 72
    65
 73
     6
 40
10.0
 49
3.25
 49
-1.25
 49
1.25
 49
-1.25
 49
1.25
 49
-1.25
  0
LTYPE
  2
PHANTOM2
 70
    64
  3
--------  -  -  --------  -  -  
 72
    65
 73
     6
 40
20.0
 49
10.0
 49
-2.5
 49
1.25
 49
-2.5
 49
1.25
 49
-2.5
  0
LTYPE
  2
DOT
 70
    64
  3
-   -   -   -   -   -   -   -   
 72
    65
 73
     2
 40
2.5
 49
0.625
 49
-1.875
  0
LTYPE
  2
DUMMY
 70
    64
  3
ダミー
 72
    65
 73
     0
 40
0.0
  0
LTYPE
  2
RAND1
 70
    64
  3
ランダム線1
 72
    65
 73
     4
 40
10.0
 49
1.0
 49
-2.0
 49
3.0
 49
-4.0
  0
LTYPE
  2
RAND2
 70
    64
  3
ランダム線2
 72
    65
 73
     4
 40
14.0
 49
2.0
 49
-3.0
 49
4.0
 49
-5.0
  0
LTYPE
  2
RAND3
 70
    64
  3
ランダム線3
 72
    65
 73
     4
 40
18.0
 49
3.0
 49
-4.0
 49
5.0
 49
-6.0
  0
LTYPE
  2
RAND4
 70
    64
  3
ランダム線4
 72
    65
 73
     4
 40
22.0
 49
4.0
 49
-5.0
 49
6.0
 49
-7.0
  0
LTYPE
  2
RAND5
 70
    64
  3
ランダム線5
 72
    65
 73
     4
 40
26.0
 49
5.0
 49
-6.0
 49
7.0
 49
-8.0
  0
LTYPE
  2
LONG1
 70
    64
  3
----------  --  ----------  --  
 72
    65
 73
     4
 40
40.0
 49
32.5
 49
-2.5
 49
2.5
 49
-2.5
  0
LTYPE
  2
LONG2
 70
    64
  3
--------  -  -  --------  -  -  
 72
    65
 73
     6
 40
40.0
 49
30.0
 49
-2.5
 49
1.25
 49
-2.5
 49
1.25
 49
-2.5
  0
LTYPE
  2
LONG3
 70
    64
  3
+++++++++++++++..+++++++++++++++
 72
    65
 73
     2
 40
40.0
 49
37.5
 49
-2.5
  0
LTYPE
  2
LONG4
 70
    64
  3
+++++++++++++++..+++++++++++++++
 72
    65
 73
     2
 40
80.0
 49
75.0
 49
-5.0
  0
LTYPE
  2
LONG5
 70
    64
  3
----------  --  ----------  --  
 72
    65
 73
     4
 40
60.0
 49
37.5
 49
-7.5
 49
7.5
 49
-7.5
  0
LTYPE
  2
dashed
 70
   64
  3
-------   -------------   ------
 72
   65
 73
    2
 40
7.5
 49
6
 49
-1.5
  0
LTYPE
  2
dashed_spaced
 70
   64
  3
----        --------        ----
 72
   65
 73
    2
 40
12
 49
6
 49
-6
  0
LTYPE
  2
long_dashed_dotted
 70
   64
  3
------------- --- --------------
 72
   65
 73
    4
 40
15.25
 49
12
 49
-1.5
 49
0.25
 49
-1.5
  0
LTYPE
  2
long_dashed_double-dotted
 70
   64
  3
----------- --- --- ------------
 72
   65
 73
    6
 40
17
 49
12
 49
-1.5
 49
0.25
 49
-1.5
 49
0.25
 49
-1.5
  0
LTYPE
  2
long_dashed_triplicate-dotted
 70
   64
  3
--------- --- --- --- ----------
 72
   65
 73
    8
 40
18.75
 49
12
 49
-1.5
 49
0.25
 49
-1.5
 49
0.25
 49
-1.5
 49
0.25
 49
-1.5
  0
LTYPE
  2
dotted
 70
   64
  3
   -       -       -       -    
 72
   65
 73
    2
 40
1.75
 49
0.25
 49
-1.5
  0
LTYPE
  2
chain
 70
   64
  3
-------------- -- --------------
 72
   65
 73
    4
 40
18.5
 49
12
 49
-1.5
 49
3.5
 49
-1.5
  0
LTYPE
  2
chain_double_dash
 70
   64
  3
------------ -- -- -------------
 72
   65
 73
    6
 40
23.5
 49
12
 49
-1.5
 49
3.5
 49
-1.5
 49
3.5
 49
-1.5
  0
LTYPE
  2
dashed_dotted
 70
   64
  3
-----------     -     ----------
 72
   65
 73
    4
 40
9.25
 49
6
 49
-1.5
 49
0.25
 49
-1.5
  0
LTYPE
  2
double-dashed_dotted
 70
   64
  3
------   -----------   -   -----
 72
   65
 73
    6
 40
16.75
 49
6
 49
-1.5
 49
6
 49
-1.5
 49
0.25
 49
-1.5
  0
LTYPE
  2
dashed_double-dotted
 70
   64
  3
---------    -    -    ---------
 72
   65
 73
    6
 40
11
 49
6
 49
-1.5
 49
0.25
 49
-1.5
 49
0.25
 49
-1.5
  0
LTYPE
  2
double-dashed_double-dotted
 70
   64
  3
-----   ---------   -   -   ----
 72
   65
 73
    8
 40
18.5
 49
6
 49
-1.5
 49
6
 49
-1.5
 49
0.25
 49
-1.5
 49
0.25
 49
-1.5
  0
LTYPE
  2
dashed_triplicate-dotted
 70
   64
  3
-------    -    -    -    ------
 72
   65
 73
    8
 40
12.75
 49
6
 49
-1.5
 49
0.25
 49
-1.5
 49
0.25
 49
-1.5
 49
0.25
 49
-1.5
  0
LTYPE
  2
double-dashed_triplicate-dotted
 70
   64
  3
-----  ---------  -  -  -  -----
 72
   65
 73
   10
 40
20.25
 49
6
 49
-1.5
 49
6
 49
-1.5
 49
0.25
 49
-1.5
 49
0.25
 49
-1.5
 49
0.25
 49
-1.5
  0
LTYPE
  2
undefined
 70
   64
  3
--------------------------------
 72
   65
 73
    0
 40
0
  0
ENDTAB
  0
TABLE
  2
STYLE
  5
3
100
AcDbSymbolTable
 70
     1
  0
STYLE
  5
10
100
AcDbSymbolTableRecord
100
AcDbTextStyleTableRecord
  2
STANDARD
 70
     0
 40
0.0
 41
1.0
 50
0.0
 71
     0
 42
0.2
  3
txt
  4
bigfont.shx
  0
STYLE
  5
26
100
AcDbSymbolTableRecord
100
AcDbTextStyleTableRecord
  2
TATEGAKI
 70
    68
 40
0.0
 41
1.0
 50
0.0
 71
     0
 42
1.0
  3
txt
  4
bigfont.shx
  0
ENDTAB
  0
TABLE
  2
LAYER
 70
    5
  0
LAYER
  2
_0-1_
 70
   64
 62
    7
  6
CONTINUOUS
  0
LAYER
  2
_1-1_
 70
   64
 62
    7
  6
CONTINUOUS
  0
LAYER
  2
_1-2_
 70
   64
 62
    7
  6
CONTINUOUS
  0
LAYER
  2
_1-3_ADD_LINE
 70
   64
 62
    7
  6
CONTINUOUS
  0
LAYER
  2
ADD_LINE
 70
   64
 62
    7
  6
CONTINUOUS
  0
ENDTAB
  0
ENDSEC
  0
SECTION
  2
BLOCKS
  0
ENDSEC
  0
SECTION
  2
ENTITIES
  0
LINE
  8
_1-1_
  6
CONTINUOUS
 62
    4
 10
160.8519062910168
 20
60.138916823599459
 11
200.8519062910168
 21
60.138916823599459
  0
LINE
  8
_1-2_
  6
CONTINUOUS
 62
    6
 10
192.8519062910168
 20
161.13891682359946
 11
193.8519062910168
 21
161.13891682359946
  0
ARC
  8
_1-2_
  6
CONTINUOUS
 62
    6
 10
193.75336488551753
 20
147.93696211697198
 40
0.5
 50
216.59041666293757
 51
281.36642136727284
  0
ARC
  8
_1-2_
  6
CONTINUOUS
 62
    6
 10
193.75336488551753
 20
148.93696211697198
 40
0.5
 50
216.59041666293757
 51
281.36642136727284
  0
ARC
  8
_1-2_
  6
CONTINUOUS
 62
    6
 10
192.95044769651608
 20
148.34087153022693
 40
0.5
 50
36.590416662937571
 51
101.36642136727282
  0
ARC
  8
_1-2_
  6
CONTINUOUS
 62
    6
 10
192.95044769651608
 20
147.34087153022693
 40
0.5
 50
36.590416662937571
 51
101.36642136727282
  0
LINE
  8
_1-2_
  6
CONTINUOUS
 62
    6
 10
192.8519062910168
 20
161.13891682359946
 11
192.8519062910168
 21
148.83106495266571
  0
LINE
  8
_1-2_
  6
CONTINUOUS
 62
    6
 10
193.8519062910168
 20
161.13891682359946
 11
193.8519062910168
 21
148.4467686945332
  0
TEXT
  8
_1-1_
 62
    7
 10
142.51704034453385
 20
172.16962458258945
 40
3
 41
1
 50
0
  1
耐熱ビニール電線(赤)
  0
TEXT
  8
_1-1_
 62
    7
 10
143.22508754589018
 20
167.94738178029769
 40
3
 41
1
 50
0
  1
0.75mm
  0
TEXT
  8
_1-1_
 62
    4
 10
153.85511604429877
 20
169.37484569942549
 40
2
 41
1
 50
0
  1
2
  0
LINE
  8
_1-1_
  6
CONTINUOUS
 62
    4
 10
141.54516691409688
 20
167.11588274431722
 11
172.25636731590504
 21
167.11588274431722
  0
LINE
  8
_1-1_
  6
CONTINUOUS
 62
    4
 10
218.9507785032647
 20
136.13891682359946
 11
218.9507785032647
 21
161.13891682359946
  0
LINE
  8
_1-1_
  6
CONTINUOUS
 62
    4
 10
218.9507785032647
 20
136.13891682359946
 11
218.43314041305965
 21
138.07076847617759
  0
LINE
  8
_1-1_
  6
CONTINUOUS
 62
    4
 10
218.9507785032647
 20
136.13891682359946
 11
219.46841659346973
 21
138.07076847617759
  0
LINE
  8
_1-1_
  6
CONTINUOUS
 62
    4
 10
218.9507785032647
 20
161.13891682359946
 11
218.43314041305965
 21
159.20706517102133
  0
LINE
  8
_1-1_
  6
CONTINUOUS
 62
    4
 10
218.9507785032647
 20
161.13891682359946
 11
219.46841659346973
 21
159.20706517102133
  0
LINE
  8
_1-1_
  6
CONTINUOUS
 62
    4
 10
218.9507785032647
 20
161.13891682359946
 11
208.9507785032647
 21
161.13891682359946
  0
LINE
  8
_0-1_
  6
CONTINUOUS
 62
    3
 10
109.91378294262526
 20
10.082039243805809
 11
109.59104797587588
 21
10.082039243805809
  0
LINE
  8
_0-1_
  6
CONTINUOUS
 62
    3
 10
109.59104797587588
 20
10.082039243805809
 11
109.59104797587588
 21
280.35561316697232
  0
LINE
  8
_0-1_
  6
CONTINUOUS
 62
    3
 10
289.74820746365236
 20
280.35561316697232
 11
289.74820746365236
 21
10.082039243805809
  0
LINE
  8
_0-1_
  6
CONTINUOUS
 62
    3
 10
109.59104797587588
 20
280.35561316697232
 11
289.74820746365236
 21
280.35561316697232
  0
LINE
  8
_0-1_
  6
CONTINUOUS
 62
    3
 10
289.74820746365236
 20
10.082039243805809
 11
109.59104797587588
 21
10.082039243805809
  0
LINE
  8
_0-1_
  6
CONTINUOUS
 62
    3
 10
289.74820746365236
 20
25.082039243805809
 11
109.59104797587588
 21
25.082039243805809
  0
LINE
  8
_0-1_
  6
CONTINUOUS
 62
    3
 10
169.59104797587588
 20
10.082039243805809
 11
169.59104797587588
 21
25.082039243805809
  0
LINE
  8
_0-1_
  6
CONTINUOUS
 62
    3
 10
229.59104797587588
 20
10.082039243805809
 11
229.59104797587588
 21
25.082039243805809
  0
TEXT
  8
_0-1_
 62
    7
 10
111.53633893959282
 20
21.577207655443985
 40
2
 41
1
 50
0
  1
ＴＩＴＬＥ
  0
TEXT
  8
_0-1_
 62
    7
 10
171.46168920362626
 20
21.325420469460653
 40
2
 41
1
 50
0
  1
ＭＯＤＥＬ
  0
TEXT
  8
_0-1_
 62
    7
 10
236.24586551082081
 20
15.198940813772481
 40
4
 41
1
 50
0
  1
日伸制御機工株式会社
  0
TEXT
  8
_0-1_
 62
    7
 10
119.50276243093923
 20
14.378453038674053
 40
4
 41
1
 50
0
  1
スパークケンチャー
  0
LINE
  8
_1-2_
  6
CONTINUOUS
 62
    6
 10
200.8519062910168
 20
136.13891682359946
 11
160.8519062910168
 21
136.13891682359946
  0
LINE
  8
_1-2_
  6
CONTINUOUS
 62
    6
 10
210.8519062910168
 20
71.138916823599459
 11
150.8519062910168
 21
71.138916823599459
  0
LINE
  8
_1-1_
  6
CONTINUOUS
 62
    4
 10
218.9507785032647
 20
136.13891682359946
 11
218.43314041305965
 21
134.20706517102133
  0
LINE
  8
_1-1_
  6
CONTINUOUS
 62
    4
 10
218.9507785032647
 20
136.13891682359946
 11
219.46841659346973
 21
134.20706517102133
  0
LINE
  8
_1-1_
  6
CONTINUOUS
 62
    4
 10
218.9507785032647
 20
136.13891682359946
 11
208.9507785032647
 21
136.13891682359946
  0
TEXT
  8
_1-1_
 62
    7
 10
218.4507785032647
 20
146.13891682359946
 40
3
 41
1
 50
90
  1
300
  0
LINE
  8
_1-2_
  6
CONTINUOUS
 62
    6
 10
168.8519062910168
 20
161.13891682359946
 11
167.8519062910168
 21
161.13891682359946
  0
ARC
  8
_1-2_
  6
CONTINUOUS
 62
    6
 10
167.95044769651608
 20
147.93696211697198
 40
0.5
 50
258.63357863272716
 51
323.40958333706243
  0
ARC
  8
_1-2_
  6
CONTINUOUS
 62
    6
 10
167.95044769651608
 20
148.93696211697198
 40
0.5
 50
258.63357863272716
 51
323.40958333706243
  0
ARC
  8
_1-2_
  6
CONTINUOUS
 62
    6
 10
168.75336488551753
 20
148.34087153022693
 40
0.5
 50
78.633578632727179
 51
143.40958333706243
  0
ARC
  8
_1-2_
  6
CONTINUOUS
 62
    6
 10
168.75336488551753
 20
147.34087153022693
 40
0.5
 50
78.633578632727179
 51
143.40958333706243
  0
LINE
  8
_1-2_
  6
CONTINUOUS
 62
    6
 10
168.8519062910168
 20
161.13891682359946
 11
168.8519062910168
 21
148.83106495266571
  0
LINE
  8
_1-2_
  6
CONTINUOUS
 62
    6
 10
167.8519062910168
 20
161.13891682359946
 11
167.8519062910168
 21
148.4467686945332
  0
LINE
  8
_1-1_
  6
CONTINUOUS
 62
    4
 10
180.19673086902108
 20
157.32844846005921
 11
179.14137198538933
 21
159.027335633105
  0
LINE
  8
_1-1_
  6
CONTINUOUS
 62
    4
 10
180.19673086902108
 20
157.32844846005921
 11
178.4333196791635
 21
158.2720484682645
  0
LINE
  8
_1-2_
  6
CONTINUOUS
 62
    6
 10
181.3519062910168
 20
161.13891682359946
 11
181.3519062910168
 21
148.4467686945332
  0
LINE
  8
_1-2_
  6
CONTINUOUS
 62
    6
 10
180.3519062910168
 20
161.13891682359946
 11
180.3519062910168
 21
148.83106495266571
  0
ARC
  8
_1-2_
  6
CONTINUOUS
 62
    6
 10
180.45044769651608
 20
147.34087153022693
 40
0.5
 50
36.590416662937571
 51
101.36642136727282
  0
ARC
  8
_1-2_
  6
CONTINUOUS
 62
    6
 10
180.45044769651608
 20
148.34087153022693
 40
0.5
 50
36.590416662937571
 51
101.36642136727282
  0
ARC
  8
_1-2_
  6
CONTINUOUS
 62
    6
 10
181.25336488551753
 20
148.93696211697198
 40
0.5
 50
216.59041666293757
 51
281.36642136727284
  0
ARC
  8
_1-2_
  6
CONTINUOUS
 62
    6
 10
181.25336488551753
 20
147.93696211697198
 40
0.5
 50
216.59041666293757
 51
281.36642136727284
  0
LINE
  8
_1-2_
  6
CONTINUOUS
 62
    6
 10
180.3519062910168
 20
161.13891682359946
 11
181.3519062910168
 21
161.13891682359946
  0
LINE
  8
_1-1_
  6
CONTINUOUS
 62
    4
 10
180.19673086902108
 20
157.32844846005921
 11
172.25636731590504
 21
167.11588274431722
  0
LINE
  8
_1-1_
  6
CONTINUOUS
 62
    4
 10
160.8519062910168
 20
60.138916823599459
 11
162.78375794359494
 21
60.656554913804499
  0
LINE
  8
_1-1_
  6
CONTINUOUS
 62
    4
 10
160.8519062910168
 20
60.138916823599459
 11
162.78375794359494
 21
59.621278733394419
  0
LINE
  8
_1-1_
  6
CONTINUOUS
 62
    4
 10
200.8519062910168
 20
60.138916823599459
 11
198.92005463843867
 21
60.656554913804499
  0
LINE
  8
_1-1_
  6
CONTINUOUS
 62
    4
 10
200.8519062910168
 20
60.138916823599459
 11
198.92005463843867
 21
59.621278733394419
  0
LINE
  8
_1-1_
  6
CONTINUOUS
 62
    4
 10
150.8519062910168
 20
50.138916823599459
 11
210.8519062910168
 21
50.138916823599459
  0
LINE
  8
_1-1_
  6
CONTINUOUS
 62
    4
 10
150.8519062910168
 20
50.138916823599459
 11
152.78375794359494
 21
50.656554913804499
  0
LINE
  8
_1-1_
  6
CONTINUOUS
 62
    4
 10
150.8519062910168
 20
50.138916823599459
 11
152.78375794359494
 21
49.621278733394419
  0
LINE
  8
_1-1_
  6
CONTINUOUS
 62
    4
 10
210.8519062910168
 20
50.138916823599459
 11
208.92005463843867
 21
50.656554913804499
  0
LINE
  8
_1-1_
  6
CONTINUOUS
 62
    4
 10
210.8519062910168
 20
50.138916823599459
 11
208.92005463843867
 21
49.621278733394419
  0
LINE
  8
_1-1_
  6
CONTINUOUS
 62
    4
 10
155.8519062910168
 20
55.734053239578117
 11
205.8519062910168
 21
55.734053239578117
  0
LINE
  8
_1-1_
  6
CONTINUOUS
 62
    4
 10
155.8519062910168
 20
55.734053239578117
 11
157.78375794359494
 21
56.251691329783156
  0
LINE
  8
_1-1_
  6
CONTINUOUS
 62
    4
 10
155.8519062910168
 20
55.734053239578117
 11
157.78375794359494
 21
55.216415149373077
  0
LINE
  8
_1-1_
  6
CONTINUOUS
 62
    4
 10
205.8519062910168
 20
55.734053239578117
 11
203.92005463843867
 21
56.251691329783156
  0
LINE
  8
_1-1_
  6
CONTINUOUS
 62
    4
 10
205.8519062910168
 20
55.734053239578117
 11
203.92005463843867
 21
55.216415149373077
  0
LINE
  8
_1-2_
  6
DASHED1
 62
    4
 10
174.70140940447484
 20
108.05689862946797
 11
188.70140940447484
 21
108.05689862946797
  0
LINE
  8
_1-2_
  6
DASHED1
 62
    4
 10
174.70140940447484
 20
104.05689862946797
 11
188.70140940447484
 21
104.05689862946797
  0
LINE
  8
_1-2_
  6
DASHED1
 62
    4
 10
174.70140940447484
 20
104.05689862946797
 11
174.70140940447484
 21
108.05689862946797
  0
LINE
  8
_1-2_
  6
DASHED1
 62
    4
 10
188.70140940447484
 20
104.05689862946797
 11
188.70140940447484
 21
108.05689862946797
  0
CIRCLE
  8
_1-2_
  6
CONTINUOUS
 62
    6
 10
168.3519062910168
 20
199.13891682359946
 40
0.5
  0
CIRCLE
  8
_1-2_
  6
CONTINUOUS
 62
    6
 10
180.8519062910168
 20
199.13891682359946
 40
0.5
  0
CIRCLE
  8
_1-2_
  6
CONTINUOUS
 62
    6
 10
193.3519062910168
 20
199.13891682359946
 40
0.5
  0
ARC
  8
_1-2_
  6
CONTINUOUS
 62
    6
 10
155.8519062910168
 20
199.13891682359946
 40
2.25
 50
270
 51
90
  0
LINE
  8
_1-2_
  6
CONTINUOUS
 62
    6
 10
155.8519062910168
 20
201.38891682359946
 11
150.8519062910168
 21
201.38891682359946
  0
LINE
  8
_1-2_
  6
CONTINUOUS
 62
    6
 10
155.8519062910168
 20
196.88891682359946
 11
150.8519062910168
 21
196.88891682359946
  0
LINE
  8
_1-3_ADD_LINE
  6
CENTER1
 62
    7
 10
155.8519062910168
 20
201.86301755690664
 11
155.8519062910168
 21
196.46449353582835
  0
LINE
  8
_1-3_ADD_LINE
  6
CENTER1
 62
    7
 10
158.4342580285317
 20
199.13891682359946
 11
153.61887469857461
 21
199.13891682359946
  0
ARC
  8
_1-2_
  6
CONTINUOUS
 62
    6
 10
205.8519062910168
 20
199.13891682359946
 40
2.25
 50
90
 51
270
  0
LINE
  8
_1-3_ADD_LINE
  6
CENTER1
 62
    7
 10
203.29708689100954
 20
199.13891682359946
 11
208.08493788345899
 21
199.13891682359946
  0
LINE
  8
_1-2_
  6
CONTINUOUS
 62
    6
 10
205.8519062910168
 20
201.38891682359946
 11
210.8519062910168
 21
201.38891682359946
  0
LINE
  8
_1-3_ADD_LINE
  6
CENTER1
 62
    7
 10
205.8519062910168
 20
201.58533856901511
 11
205.8519062910168
 21
196.66248116524361
  0
LINE
  8
_1-2_
  6
CONTINUOUS
 62
    6
 10
205.8519062910168
 20
196.88891682359946
 11
210.8519062910168
 21
196.88891682359946
  0
LINE
  8
_1-1_
  6
CONTINUOUS
 62
    4
 10
221.8519062910168
 20
201.38891682359946
 11
221.33426820081175
 21
203.32076847617759
  0
LINE
  8
_1-1_
  6
CONTINUOUS
 62
    4
 10
221.8519062910168
 20
201.38891682359946
 11
222.36954438122186
 21
203.32076847617759
  0
LINE
  8
_1-1_
  6
CONTINUOUS
 62
    4
 10
221.8519062910168
 20
196.88891682359946
 11
221.33426820081175
 21
194.95706517102133
  0
LINE
  8
_1-1_
  6
CONTINUOUS
 62
    4
 10
221.8519062910168
 20
196.88891682359946
 11
222.36954438122186
 21
194.95706517102133
  0
LINE
  8
_1-1_
  6
CONTINUOUS
 62
    4
 10
221.8519062910168
 20
201.38891682359946
 11
211.8519062910168
 21
201.38891682359946
  0
LINE
  8
_1-1_
  6
CONTINUOUS
 62
    4
 10
221.8519062910168
 20
196.88891682359946
 11
211.8519062910168
 21
196.88891682359946
  0
TEXT
  8
_1-1_
 62
    7
 10
221.3519062910168
 20
205.23357650865358
 40
3
 41
1
 50
90
  1
4.5
  0
LINE
  8
_1-1_
  6
CONTINUOUS
 62
    4
 10
221.8519062910168
 20
211.34679954824333
 11
221.8519062910168
 21
193.55862458410917
  0
LINE
  8
_1-2_
  6
CONTINUOUS
 62
    6
 10
150.8519062910168
 20
71.138916823599459
 11
150.8519062910168
 21
70.338916823599462
  0
LINE
  8
_1-2_
  6
CONTINUOUS
 62
    6
 10
160.8519062910168
 20
136.13891682359946
 11
160.8519062910168
 21
71.138916823599459
  0
LINE
  8
_1-2_
  6
CONTINUOUS
 62
    6
 10
161.65190629101681
 20
71.138916823599459
 11
161.65190629101681
 21
70.338916823599462
  0
LINE
  8
_1-2_
  6
CONTINUOUS
 62
    6
 10
161.65190629101681
 20
70.338916823599462
 11
150.8519062910168
 21
70.338916823599462
  0
LINE
  8
_1-2_
  6
CONTINUOUS
 62
    6
 10
210.8519062910168
 20
71.138916823599459
 11
210.8519062910168
 21
70.338916823599462
  0
LINE
  8
_1-2_
  6
CONTINUOUS
 62
    6
 10
210.8519062910168
 20
70.338916823599462
 11
200.05190629101679
 21
70.338916823599462
  0
LINE
  8
_1-2_
  6
CONTINUOUS
 62
    6
 10
200.05190629101679
 20
71.138916823599459
 11
200.05190629101679
 21
70.338916823599462
  0
LINE
  8
_1-2_
  6
CONTINUOUS
 62
    6
 10
200.8519062910168
 20
136.13891682359946
 11
200.8519062910168
 21
71.138916823599459
  0
LINE
  8
_1-1_
  6
CONTINUOUS
 62
    4
 10
200.8519062910168
 20
60.138916823599459
 11
200.8519062910168
 21
69.225496779707584
  0
LINE
  8
_1-1_
  6
CONTINUOUS
 62
    4
 10
160.8519062910168
 20
60.138916823599459
 11
160.8519062910168
 21
69.225496779707584
  0
LINE
  8
_1-1_
  6
CONTINUOUS
 62
    4
 10
210.8519062910168
 20
50.138916823599459
 11
210.8519062910168
 21
69.225496779707584
  0
LINE
  8
_1-1_
  6
CONTINUOUS
 62
    4
 10
205.8519062910168
 20
55.734053239578117
 11
205.8519062910168
 21
68.548594365251375
  0
LINE
  8
_1-1_
  6
CONTINUOUS
 62
    4
 10
155.8519062910168
 20
55.734053239578117
 11
155.8519062910168
 21
68.322960227099301
  0
LINE
  8
_1-1_
  6
CONTINUOUS
 62
    4
 10
150.8519062910168
 20
50.138916823599459
 11
150.8519062910168
 21
69.225496779707584
  0
LINE
  8
_1-2_
  6
CONTINUOUS
 62
    6
 10
150.8519062910168
 20
201.38891682359946
 11
150.8519062910168
 21
209.13891682359946
  0
LINE
  8
_1-2_
  6
CONTINUOUS
 62
    6
 10
160.8519062910168
 20
209.13891682359946
 11
150.8519062910168
 21
209.13891682359946
  0
LINE
  8
_1-2_
  6
CONTINUOUS
 62
    6
 10
160.8519062910168
 20
214.13891682359946
 11
200.8519062910168
 21
214.13891682359946
  0
LINE
  8
_1-2_
  6
CONTINUOUS
 62
    6
 10
210.8519062910168
 20
209.13891682359946
 11
200.8519062910168
 21
209.13891682359946
  0
LINE
  8
_1-2_
  6
CONTINUOUS
 62
    6
 10
210.8519062910168
 20
201.38891682359946
 11
210.8519062910168
 21
209.13891682359946
  0
LINE
  8
_1-2_
  6
CONTINUOUS
 62
    6
 10
210.8519062910168
 20
189.13891682359946
 11
210.8519062910168
 21
196.88891682359946
  0
LINE
  8
_1-2_
  6
CONTINUOUS
 62
    6
 10
210.8519062910168
 20
189.13891682359946
 11
200.8519062910168
 21
189.13891682359946
  0
LINE
  8
_1-2_
  6
CONTINUOUS
 62
    6
 10
200.8519062910168
 20
184.13891682359946
 11
200.8519062910168
 21
214.13891682359946
  0
LINE
  8
_1-2_
  6
CONTINUOUS
 62
    6
 10
160.8519062910168
 20
184.13891682359946
 11
200.8519062910168
 21
184.13891682359946
  0
LINE
  8
_1-2_
  6
CONTINUOUS
 62
    6
 10
160.8519062910168
 20
184.13891682359946
 11
160.8519062910168
 21
214.13891682359946
  0
LINE
  8
_1-2_
  6
CONTINUOUS
 62
    6
 10
150.8519062910168
 20
189.13891682359946
 11
150.8519062910168
 21
196.88891682359946
  0
LINE
  8
_1-2_
  6
CONTINUOUS
 62
    6
 10
160.8519062910168
 20
189.13891682359946
 11
150.8519062910168
 21
189.13891682359946
  0
CIRCLE
  8
_1-2_
  6
CONTINUOUS
 62
    6
 10
168.3519062910168
 20
199.13891682359946
 40
4.0999999999999996
  0
CIRCLE
  8
_1-2_
  6
CONTINUOUS
 62
    6
 10
180.8519062910168
 20
199.13891682359946
 40
4.0999999999999996
  0
CIRCLE
  8
_1-2_
  6
CONTINUOUS
 62
    6
 10
193.3519062910168
 20
199.13891682359946
 40
4.0999999999999996
  0
CIRCLE
  8
_1-2_
  6
CONTINUOUS
 62
    6
 10
168.3519062910168
 20
199.13891682359946
 40
2.3999999999999999
  0
CIRCLE
  8
_1-2_
  6
CONTINUOUS
 62
    6
 10
180.8519062910168
 20
199.13891682359946
 40
2.3999999999999999
  0
CIRCLE
  8
_1-2_
  6
CONTINUOUS
 62
    6
 10
193.3519062910168
 20
199.13891682359946
 40
2.3999999999999999
  0
LINE
  8
_1-2_
  6
CONTINUOUS
 62
    6
 10
176.75190629101681
 20
136.13891682359946
 11
178.4519062910168
 21
139.13891682359946
  0
LINE
  8
_1-2_
  6
CONTINUOUS
 62
    6
 10
183.25190629101681
 20
139.13891682359946
 11
184.9519062910168
 21
136.13891682359946
  0
LINE
  8
_1-2_
  6
CONTINUOUS
 62
    6
 10
183.25190629101681
 20
139.13891682359946
 11
178.4519062910168
 21
139.13891682359946
  0
LINE
  8
_1-2_
  6
CONTINUOUS
 62
    6
 10
180.3519062910168
 20
147.83106495266571
 11
180.3519062910168
 21
139.13891682359946
  0
LINE
  8
_1-2_
  6
CONTINUOUS
 62
    6
 10
181.3519062910168
 20
147.4467686945332
 11
181.3519062910168
 21
139.13891682359946
  0
LINE
  8
_1-2_
  6
CONTINUOUS
 62
    6
 10
164.25190629101681
 20
136.13891682359946
 11
165.9519062910168
 21
139.13891682359946
  0
LINE
  8
_1-2_
  6
CONTINUOUS
 62
    6
 10
170.75190629101681
 20
139.13891682359946
 11
172.4519062910168
 21
136.13891682359946
  0
LINE
  8
_1-2_
  6
CONTINUOUS
 62
    6
 10
170.75190629101681
 20
139.13891682359946
 11
165.9519062910168
 21
139.13891682359946
  0
LINE
  8
_1-2_
  6
CONTINUOUS
 62
    6
 10
189.25190629101681
 20
136.13891682359946
 11
190.9519062910168
 21
139.13891682359946
  0
LINE
  8
_1-2_
  6
CONTINUOUS
 62
    6
 10
195.75190629101681
 20
139.13891682359946
 11
197.4519062910168
 21
136.13891682359946
  0
LINE
  8
_1-2_
  6
CONTINUOUS
 62
    6
 10
195.75190629101681
 20
139.13891682359946
 11
190.9519062910168
 21
139.13891682359946
  0
LINE
  8
_1-2_
  6
CONTINUOUS
 62
    6
 10
167.8519062910168
 20
147.4467686945332
 11
167.8519062910168
 21
139.13891682359946
  0
LINE
  8
_1-2_
  6
CONTINUOUS
 62
    6
 10
168.8519062910168
 20
147.83106495266571
 11
168.8519062910168
 21
139.13891682359946
  0
LINE
  8
_1-2_
  6
CONTINUOUS
 62
    6
 10
192.8519062910168
 20
147.83106495266571
 11
192.8519062910168
 21
139.13891682359946
  0
LINE
  8
_1-2_
  6
CONTINUOUS
 62
    6
 10
193.8519062910168
 20
147.4467686945332
 11
193.8519062910168
 21
139.13891682359946
  0
LINE
  8
_1-2_
  6
CONTINUOUS
 62
    6
 10
252.8519062910168
 20
161.13891682359946
 11
253.8519062910168
 21
161.13891682359946
  0
ARC
  8
_1-2_
  6
CONTINUOUS
 62
    6
 10
253.75336488551753
 20
147.93696211697198
 40
0.5
 50
216.59041666293757
 51
281.36642136727284
  0
ARC
  8
_1-2_
  6
CONTINUOUS
 62
    6
 10
253.75336488551753
 20
148.93696211697198
 40
0.5
 50
216.59041666293757
 51
281.36642136727284
  0
ARC
  8
_1-2_
  6
CONTINUOUS
 62
    6
 10
252.95044769651608
 20
148.34087153022693
 40
0.5
 50
36.590416662937571
 51
101.36642136727282
  0
ARC
  8
_1-2_
  6
CONTINUOUS
 62
    6
 10
252.95044769651608
 20
147.34087153022693
 40
0.5
 50
36.590416662937571
 51
101.36642136727282
  0
LINE
  8
_1-2_
  6
CONTINUOUS
 62
    6
 10
252.8519062910168
 20
161.13891682359946
 11
252.8519062910168
 21
148.83106495266571
  0
LINE
  8
_1-2_
  6
CONTINUOUS
 62
    6
 10
253.8519062910168
 20
161.13891682359946
 11
253.8519062910168
 21
148.4467686945332
  0
LINE
  8
_1-2_
  6
CONTINUOUS
 62
    6
 10
249.25190629101681
 20
136.13891682359946
 11
250.9519062910168
 21
139.13891682359946
  0
LINE
  8
_1-2_
  6
CONTINUOUS
 62
    6
 10
255.75190629101681
 20
139.13891682359946
 11
257.45190629101683
 21
136.13891682359946
  0
LINE
  8
_1-2_
  6
CONTINUOUS
 62
    6
 10
255.75190629101681
 20
139.13891682359946
 11
250.9519062910168
 21
139.13891682359946
  0
LINE
  8
_1-2_
  6
CONTINUOUS
 62
    6
 10
252.8519062910168
 20
147.83106495266571
 11
252.8519062910168
 21
139.13891682359946
  0
LINE
  8
_1-2_
  6
CONTINUOUS
 62
    6
 10
253.8519062910168
 20
147.4467686945332
 11
253.8519062910168
 21
139.13891682359946
  0
LINE
  8
_1-2_
  6
CONTINUOUS
 62
    6
 10
243.8519062910168
 20
71.138916823599459
 11
243.8519062910168
 21
70.338916823599462
  0
LINE
  8
_1-2_
  6
CONTINUOUS
 62
    6
 10
243.8519062910168
 20
70.338916823599462
 11
263.8519062910168
 21
70.338916823599462
  0
LINE
  8
_1-2_
  6
CONTINUOUS
 62
    6
 10
263.8519062910168
 20
71.138916823599459
 11
263.8519062910168
 21
70.338916823599462
  0
LINE
  8
_1-3_ADD_LINE
  6
CENTER1
 62
    7
 10
253.8519062910168
 20
72.587418798959973
 11
253.8519062910168
 21
69.190599410052428
  0
LINE
  8
_1-3_ADD_LINE
  6
CENTER1
 62
    7
 10
155.8519062910168
 20
72.857180794237053
 11
155.8519062910168
 21
69.33073832245104
  0
LINE
  8
_1-3_ADD_LINE
  6
CENTER1
 62
    7
 10
205.8519062910168
 20
73.608439913311571
 11
205.8519062910168
 21
69.33073832245104
  0
LINE
  8
_1-2_
  6
CONTINUOUS
 62
    6
 10
268.8519062910168
 20
136.13891682359946
 11
268.8519062910168
 21
71.138916823599459
  0
LINE
  8
_1-1_
  6
CONTINUOUS
 62
    4
 10
268.8519062910168
 20
60.138916823599459
 11
266.92005463843867
 21
60.656554913804499
  0
LINE
  8
_1-1_
  6
CONTINUOUS
 62
    4
 10
268.8519062910168
 20
60.138916823599459
 11
266.92005463843867
 21
59.621278733394419
  0
LINE
  8
_1-1_
  6
CONTINUOUS
 62
    4
 10
268.8519062910168
 20
60.138916823599459
 11
268.8519062910168
 21
70.138916823599459
  0
LINE
  8
_1-2_
  6
CONTINUOUS
 62
    6
 10
238.8519062910168
 20
136.13891682359946
 11
238.8519062910168
 21
71.138916823599459
  0
LINE
  8
_1-1_
  6
CONTINUOUS
 62
    4
 10
238.8519062910168
 20
60.138916823599459
 11
240.78375794359494
 21
60.656554913804499
  0
LINE
  8
_1-1_
  6
CONTINUOUS
 62
    4
 10
238.8519062910168
 20
60.138916823599459
 11
240.78375794359494
 21
59.621278733394419
  0
LINE
  8
_1-1_
  6
CONTINUOUS
 62
    4
 10
238.8519062910168
 20
60.138916823599459
 11
238.8519062910168
 21
70.138916823599459
  0
LINE
  8
_1-2_
  6
CONTINUOUS
 62
    6
 10
238.8519062910168
 20
136.13891682359946
 11
268.8519062910168
 21
136.13891682359946
  0
LINE
  8
_1-1_
  6
CONTINUOUS
 62
    4
 10
238.8519062910168
 20
60.138916823599459
 11
268.8519062910168
 21
60.138916823599459
  0
LINE
  8
_1-2_
  6
CONTINUOUS
 62
    6
 10
238.8519062910168
 20
71.138916823599459
 11
268.8519062910168
 21
71.138916823599459
  0
TEXT
  8
_0-1_
 62
    7
 10
183.54696132596686
 20
14.842541436464046
 40
4
 41
1
 50
0
  1
SQ530333P
  0
TEXT
  8
_1-1_
 62
    7
 10
218.4507785032647
 20
102.01391682359946
 40
3
 41
1
 50
90
  1
65
  0
TEXT
  8
_1-1_
 62
    7
 10
179.2269062910168
 20
60.638916823599459
 40
3
 41
1
 50
0
  1
40
  0
TEXT
  8
_1-1_
 62
    7
 10
179.2269062910168
 20
56.234053239578117
 40
3
 41
1
 50
0
  1
50
  0
TEXT
  8
_1-1_
 62
    7
 10
179.2269062910168
 20
50.638916823599459
 40
3
 41
1
 50
0
  1
60
  0
TEXT
  8
_1-1_
 62
    7
 10
252.2269062910168
 20
60.638916823599459
 40
3
 41
1
 50
0
  1
30
  0
TEXT
  8
_1-2_
 62
    7
 10
178.93490105613378
 20
104.79174249870273
 40
2.5
 41
1
 50
0
  1
型式
  0
LINE
  8
_1-1_
  6
CONTINUOUS
 62
    4
 10
218.9507785032647
 20
70.338916823599462
 11
218.43314041305965
 21
72.270768476177594
  0
LINE
  8
_1-1_
  6
CONTINUOUS
 62
    4
 10
218.9507785032647
 20
70.338916823599462
 11
219.46841659346973
 21
72.270768476177594
  0
LINE
  8
_1-1_
  6
CONTINUOUS
 62
    4
 10
218.9507785032647
 20
70.338916823599462
 11
211.39226519337018
 21
70.338916823599462
  0
LINE
  8
_1-1_
  6
CONTINUOUS
 62
    4
 10
218.9507785032647
 20
70.338916823599462
 11
218.9507785032647
 21
136.13891682359946
  0
ENDSEC
  0
EOF
