  0
SECTION
  2
HEADER
  9
$ACADVER
  1
AC1009
  9
$INSBASE
 10
0
 20
0
 30
0
  9
$EXTMIN
 10
0
 20
0
  9
$EXTMAX
 10
420
 20
297
  9
$LIMMIN
 10
0
 20
0
  9
$LIMMAX
 10
420
 20
297
  9
$LTSCALE
 40
1
  0
ENDSEC
  0
SECTION
  2
TABLES
  0
TABLE
  2
LTYPE
 70
     9
  0
LTYPE
  2
CONTINUOUS
 70
    64
  3
実線
 72
    65
 73
     0
 40
0.0
  0
LTYPE
  2
DASHED1
 70
    64
  3
--  --  --  --  --  --  --  --  
 72
    65
 73
     2
 40
2.5
 49
1.25
 49
-1.25
  0
LTYPE
  2
DASHED2
 70
    64
  3
----    ----    ----    ----    
 72
    65
 73
     2
 40
5.0
 49
2.5
 49
-2.5
  0
LTYPE
  2
DASHED3
 70
    64
  3
------  ------  ------  ------  
 72
    65
 73
     2
 40
5.0
 49
3.75
 49
-1.25
  0
LTYPE
  2
CENTER1
 70
    64
  3
----- - ----- - ----- - ----- - 
 72
    65
 73
     4
 40
10.0
 49
6.25
 49
-1.25
 49
1.25
 49
-1.25
  0
LTYPE
  2
CENTER2
 70
    64
  3
----------  --  ----------  --  
 72
    65
 73
     4
 40
20.0
 49
12.5
 49
-2.5
 49
2.5
 49
-2.5
  0
LTYPE
  2
PHANTOM1
 70
    64
  3
--- - - --- - - --- - - --- - - 
 72
    65
 73
     6
 40
10.0
 49
3.25
 49
-1.25
 49
1.25
 49
-1.25
 49
1.25
 49
-1.25
  0
LTYPE
  2
PHANTOM2
 70
    64
  3
--------  -  -  --------  -  -  
 72
    65
 73
     6
 40
20.0
 49
10.0
 49
-2.5
 49
1.25
 49
-2.5
 49
1.25
 49
-2.5
  0
LTYPE
  2
DOT
 70
    64
  3
-   -   -   -   -   -   -   -   
 72
    65
 73
     2
 40
2.5
 49
0.625
 49
-1.875
  0
LTYPE
  2
DUMMY
 70
    64
  3
ダミー
 72
    65
 73
     0
 40
0.0
  0
LTYPE
  2
RAND1
 70
    64
  3
ランダム線1
 72
    65
 73
     4
 40
10.0
 49
1.0
 49
-2.0
 49
3.0
 49
-4.0
  0
LTYPE
  2
RAND2
 70
    64
  3
ランダム線2
 72
    65
 73
     4
 40
14.0
 49
2.0
 49
-3.0
 49
4.0
 49
-5.0
  0
LTYPE
  2
RAND3
 70
    64
  3
ランダム線3
 72
    65
 73
     4
 40
18.0
 49
3.0
 49
-4.0
 49
5.0
 49
-6.0
  0
LTYPE
  2
RAND4
 70
    64
  3
ランダム線4
 72
    65
 73
     4
 40
22.0
 49
4.0
 49
-5.0
 49
6.0
 49
-7.0
  0
LTYPE
  2
RAND5
 70
    64
  3
ランダム線5
 72
    65
 73
     4
 40
26.0
 49
5.0
 49
-6.0
 49
7.0
 49
-8.0
  0
LTYPE
  2
LONG1
 70
    64
  3
----------  --  ----------  --  
 72
    65
 73
     4
 40
40.0
 49
32.5
 49
-2.5
 49
2.5
 49
-2.5
  0
LTYPE
  2
LONG2
 70
    64
  3
--------  -  -  --------  -  -  
 72
    65
 73
     6
 40
40.0
 49
30.0
 49
-2.5
 49
1.25
 49
-2.5
 49
1.25
 49
-2.5
  0
LTYPE
  2
LONG3
 70
    64
  3
+++++++++++++++..+++++++++++++++
 72
    65
 73
     2
 40
40.0
 49
37.5
 49
-2.5
  0
LTYPE
  2
LONG4
 70
    64
  3
+++++++++++++++..+++++++++++++++
 72
    65
 73
     2
 40
80.0
 49
75.0
 49
-5.0
  0
LTYPE
  2
LONG5
 70
    64
  3
----------  --  ----------  --  
 72
    65
 73
     4
 40
60.0
 49
37.5
 49
-7.5
 49
7.5
 49
-7.5
  0
LTYPE
  2
dashed
 70
   64
  3
-------   -------------   ------
 72
   65
 73
    2
 40
7.5
 49
6
 49
-1.5
  0
LTYPE
  2
dashed_spaced
 70
   64
  3
----        --------        ----
 72
   65
 73
    2
 40
12
 49
6
 49
-6
  0
LTYPE
  2
long_dashed_dotted
 70
   64
  3
------------- --- --------------
 72
   65
 73
    4
 40
15.25
 49
12
 49
-1.5
 49
0.25
 49
-1.5
  0
LTYPE
  2
long_dashed_double-dotted
 70
   64
  3
----------- --- --- ------------
 72
   65
 73
    6
 40
17
 49
12
 49
-1.5
 49
0.25
 49
-1.5
 49
0.25
 49
-1.5
  0
LTYPE
  2
long_dashed_triplicate-dotted
 70
   64
  3
--------- --- --- --- ----------
 72
   65
 73
    8
 40
18.75
 49
12
 49
-1.5
 49
0.25
 49
-1.5
 49
0.25
 49
-1.5
 49
0.25
 49
-1.5
  0
LTYPE
  2
dotted
 70
   64
  3
   -       -       -       -    
 72
   65
 73
    2
 40
1.75
 49
0.25
 49
-1.5
  0
LTYPE
  2
chain
 70
   64
  3
-------------- -- --------------
 72
   65
 73
    4
 40
18.5
 49
12
 49
-1.5
 49
3.5
 49
-1.5
  0
LTYPE
  2
chain_double_dash
 70
   64
  3
------------ -- -- -------------
 72
   65
 73
    6
 40
23.5
 49
12
 49
-1.5
 49
3.5
 49
-1.5
 49
3.5
 49
-1.5
  0
LTYPE
  2
dashed_dotted
 70
   64
  3
-----------     -     ----------
 72
   65
 73
    4
 40
9.25
 49
6
 49
-1.5
 49
0.25
 49
-1.5
  0
LTYPE
  2
double-dashed_dotted
 70
   64
  3
------   -----------   -   -----
 72
   65
 73
    6
 40
16.75
 49
6
 49
-1.5
 49
6
 49
-1.5
 49
0.25
 49
-1.5
  0
LTYPE
  2
dashed_double-dotted
 70
   64
  3
---------    -    -    ---------
 72
   65
 73
    6
 40
11
 49
6
 49
-1.5
 49
0.25
 49
-1.5
 49
0.25
 49
-1.5
  0
LTYPE
  2
double-dashed_double-dotted
 70
   64
  3
-----   ---------   -   -   ----
 72
   65
 73
    8
 40
18.5
 49
6
 49
-1.5
 49
6
 49
-1.5
 49
0.25
 49
-1.5
 49
0.25
 49
-1.5
  0
LTYPE
  2
dashed_triplicate-dotted
 70
   64
  3
-------    -    -    -    ------
 72
   65
 73
    8
 40
12.75
 49
6
 49
-1.5
 49
0.25
 49
-1.5
 49
0.25
 49
-1.5
 49
0.25
 49
-1.5
  0
LTYPE
  2
double-dashed_triplicate-dotted
 70
   64
  3
-----  ---------  -  -  -  -----
 72
   65
 73
   10
 40
20.25
 49
6
 49
-1.5
 49
6
 49
-1.5
 49
0.25
 49
-1.5
 49
0.25
 49
-1.5
 49
0.25
 49
-1.5
  0
LTYPE
  2
undefined
 70
   64
  3
--------------------------------
 72
   65
 73
    0
 40
0
  0
LTYPE
  2
DASHED
 70
   64
  3
                                
 72
   65
 73
    0
 40
0
  0
LTYPE
  2
HIDDEN
 70
   64
  3
                                
 72
   65
 73
    0
 40
0
  0
LTYPE
  2
CENTER
 70
   64
  3
                                
 72
   65
 73
    0
 40
0
  0
LTYPE
  2
PHANTOM
 70
   64
  3
                                
 72
   65
 73
    0
 40
0
  0
LTYPE
  2
DOT
 70
   64
  3
                                
 72
   65
 73
    0
 40
0
  0
LTYPE
  2
DASHDOT
 70
   64
  3
                                
 72
   65
 73
    0
 40
0
  0
LTYPE
  2
BORDER
 70
   64
  3
                                
 72
   65
 73
    0
 40
0
  0
LTYPE
  2
HOJYO
 70
   64
  3
                                
 72
   65
 73
    0
 40
0
  0
ENDTAB
  0
TABLE
  2
STYLE
  5
3
100
AcDbSymbolTable
 70
     1
  0
STYLE
  5
10
100
AcDbSymbolTableRecord
100
AcDbTextStyleTableRecord
  2
STANDARD
 70
     0
 40
0.0
 41
1.0
 50
0.0
 71
     0
 42
0.2
  3
txt
  4
bigfont.shx
  0
STYLE
  5
26
100
AcDbSymbolTableRecord
100
AcDbTextStyleTableRecord
  2
TATEGAKI
 70
    68
 40
0.0
 41
1.0
 50
0.0
 71
     0
 42
1.0
  3
txt
  4
bigfont.shx
  0
ENDTAB
  0
TABLE
  2
LAYER
 70
    6
  0
LAYER
  2
_0-1_
 70
   64
 62
    7
  6
CONTINUOUS
  0
LAYER
  2
_1-1_
 70
   64
 62
    7
  6
CONTINUOUS
  0
LAYER
  2
_1-2_
 70
   64
 62
    7
  6
CONTINUOUS
  0
LAYER
  2
_1-3_ADD_LINE
 70
   64
 62
    7
  6
CONTINUOUS
  0
LAYER
  2
_1-4_
 70
   64
 62
    7
  6
CONTINUOUS
  0
LAYER
  2
ADD_LINE
 70
   64
 62
    7
  6
CONTINUOUS
  0
ENDTAB
  0
ENDSEC
  0
SECTION
  2
BLOCKS
  0
ENDSEC
  0
SECTION
  2
ENTITIES
  0
LINE
  8
_1-2_
  6
CONTINUOUS
 62
    6
 10
204.03314917127074
 20
138.35082872928177
 11
204.03314917127074
 21
124.85082872928177
  0
LINE
  8
_0-1_
  6
CONTINUOUS
 62
    3
 10
109.91378294262526
 20
10.082039243805809
 11
109.59104797587588
 21
10.082039243805809
  0
LINE
  8
_0-1_
  6
CONTINUOUS
 62
    3
 10
109.59104797587588
 20
10.082039243805809
 11
109.59104797587588
 21
280.35561316697232
  0
LINE
  8
_0-1_
  6
CONTINUOUS
 62
    3
 10
289.74820746365236
 20
280.35561316697232
 11
289.74820746365236
 21
10.082039243805809
  0
LINE
  8
_0-1_
  6
CONTINUOUS
 62
    3
 10
109.59104797587588
 20
280.35561316697232
 11
289.74820746365236
 21
280.35561316697232
  0
LINE
  8
_0-1_
  6
CONTINUOUS
 62
    3
 10
289.74820746365236
 20
10.082039243805809
 11
109.59104797587588
 21
10.082039243805809
  0
LINE
  8
_0-1_
  6
CONTINUOUS
 62
    3
 10
289.74820746365236
 20
25.082039243805809
 11
109.59104797587588
 21
25.082039243805809
  0
LINE
  8
_0-1_
  6
CONTINUOUS
 62
    3
 10
169.59104797587588
 20
10.082039243805809
 11
169.59104797587588
 21
25.082039243805809
  0
LINE
  8
_0-1_
  6
CONTINUOUS
 62
    3
 10
229.59104797587588
 20
10.082039243805809
 11
229.59104797587588
 21
25.082039243805809
  0
TEXT
  8
_0-1_
 62
    7
 10
111.53633893959282
 20
21.577207655443985
 40
2
 41
1
 50
0
  1
ＴＩＴＬＥ
  0
TEXT
  8
_0-1_
 62
    7
 10
171.46168920362626
 20
21.325420469460653
 40
2
 41
1
 50
0
  1
ＭＯＤＥＬ
  0
TEXT
  8
_0-1_
 62
    7
 10
236.24586551082081
 20
15.198940813772481
 40
4
 41
1
 50
0
  1
日伸制御機工株式会社
  0
TEXT
  8
_0-1_
 62
    7
 10
119.50276243093923
 20
14.378453038674053
 40
4
 41
1
 50
0
  1
スパークケンチャー
  0
LINE
  8
_1-2_
  6
CONTINUOUS
 62
    6
 10
164.03314917127074
 20
138.35082872928177
 11
164.03314917127074
 21
124.85082872928177
  0
LINE
  8
_1-2_
  6
CONTINUOUS
 62
    6
 10
144.03314917127074
 20
173.85082872928177
 11
164.03314917127074
 21
173.85082872928177
  0
LINE
  8
_1-2_
  6
CONTINUOUS
 62
    6
 10
144.03314917127074
 20
124.85082872928177
 11
164.03314917127074
 21
124.85082872928177
  0
LINE
  8
_1-2_
  6
CONTINUOUS
 62
    6
 10
144.03314917127074
 20
173.85082872928177
 11
144.03314917127074
 21
163.35082872928177
  0
LINE
  8
_1-2_
  6
CONTINUOUS
 62
    6
 10
144.03314917127074
 20
138.35082872928177
 11
144.03314917127074
 21
124.85082872928177
  0
LINE
  8
_1-2_
  6
CONTINUOUS
 62
    6
 10
144.03314917127074
 20
163.35082872928177
 11
164.03314917127074
 21
163.35082872928177
  0
LINE
  8
_1-2_
  6
CONTINUOUS
 62
    6
 10
164.03314917127074
 20
173.85082872928177
 11
164.03314917127074
 21
163.35082872928177
  0
LINE
  8
_1-2_
  6
CONTINUOUS
 62
    6
 10
163.53314917127074
 20
137.85082872928177
 11
163.53314917127074
 21
125.35082872928177
  0
LINE
  8
_1-2_
  6
CONTINUOUS
 62
    6
 10
144.53314917127074
 20
125.35082872928177
 11
163.53314917127074
 21
125.35082872928177
  0
LINE
  8
_1-2_
  6
CONTINUOUS
 62
    6
 10
144.53314917127074
 20
137.85082872928177
 11
144.53314917127074
 21
125.35082872928177
  0
LINE
  8
_1-4_
  6
CONTINUOUS
 62
    6
 10
144.78314917127074
 20
137.60082872928177
 11
146.78314917127074
 21
137.60082872928177
  0
LINE
  8
_1-4_
  6
CONTINUOUS
 62
    6
 10
147.53314917127074
 20
139.10082872928177
 11
146.78314917127074
 21
139.10082872928177
  0
LINE
  8
_1-4_
  6
CONTINUOUS
 62
    6
 10
144.78314917127074
 20
139.10082872928177
 11
144.03314917127074
 21
139.10082872928177
  0
LINE
  8
_1-4_
  6
CONTINUOUS
 62
    6
 10
147.53314917127074
 20
138.85082872928177
 11
146.78314917127074
 21
138.85082872928177
  0
LINE
  8
_1-4_
  6
CONTINUOUS
 62
    6
 10
144.78314917127074
 20
138.85082872928177
 11
144.03314917127074
 21
138.85082872928177
  0
LINE
  8
_1-4_
  6
CONTINUOUS
 62
    6
 10
144.03314917127074
 20
161.00082872928178
 11
147.53314917127074
 21
161.00082872928178
  0
LINE
  8
_1-4_
  6
CONTINUOUS
 62
    6
 10
144.78314917127074
 20
163.35082872928177
 11
144.78314917127074
 21
161.00082872928178
  0
LINE
  8
_1-4_
  6
CONTINUOUS
 62
    6
 10
146.78314917127074
 20
163.35082872928177
 11
146.78314917127074
 21
161.00082872928178
  0
ARC
  8
_1-4_
  6
CONTINUOUS
 62
    6
 10
145.78314917127074
 20
158.40082872928176
 40
1.05
 50
0
 51
180
  0
ARC
  8
_1-4_
  6
CONTINUOUS
 62
    6
 10
144.3831491712707
 20
156.80082872928176
 40
0.35
 50
178.97719497626443
 51
0
  0
ARC
  8
_1-4_
  6
CONTINUOUS
 62
    6
 10
147.18314917127071
 20
156.80082872928176
 40
0.35
 50
180
 51
0
  0
LINE
  8
_1-4_
  6
CONTINUOUS
 62
    6
 10
144.03314917127074
 20
161.00082872928178
 11
144.03314917127074
 21
156.80707635779257
  0
LINE
  8
_1-4_
  6
CONTINUOUS
 62
    6
 10
144.73314917127072
 20
158.40082872928176
 11
144.73314917127072
 21
156.80082872928176
  0
LINE
  8
_1-4_
  6
CONTINUOUS
 62
    6
 10
146.83314917127072
 20
158.40082872928176
 11
146.83314917127072
 21
156.80082872928176
  0
LINE
  8
_1-4_
  6
CONTINUOUS
 62
    6
 10
147.53314917127074
 20
161.00082872928178
 11
147.53314917127074
 21
156.80082872928176
  0
LINE
  8
_1-4_
  6
CONTINUOUS
 62
    6
 10
149.78314917127074
 20
163.35082872928177
 11
149.78314917127074
 21
161.00082872928178
  0
LINE
  8
_1-4_
  6
CONTINUOUS
 62
    6
 10
151.78314917127074
 20
163.35082872928177
 11
151.78314917127074
 21
161.00082872928178
  0
ARC
  8
_1-4_
  6
CONTINUOUS
 62
    6
 10
150.78314917127074
 20
158.40082872928176
 40
1.05
 50
0
 51
180
  0
ARC
  8
_1-4_
  6
CONTINUOUS
 62
    6
 10
149.3831491712707
 20
156.80082872928176
 40
0.35
 50
178.97719497626443
 51
0
  0
ARC
  8
_1-4_
  6
CONTINUOUS
 62
    6
 10
152.18314917127071
 20
156.80082872928176
 40
0.35
 50
180
 51
0
  0
LINE
  8
_1-4_
  6
CONTINUOUS
 62
    6
 10
149.03314917127074
 20
161.00082872928178
 11
149.03314917127074
 21
156.80707635779257
  0
LINE
  8
_1-4_
  6
CONTINUOUS
 62
    6
 10
149.73314917127072
 20
158.40082872928176
 11
149.73314917127072
 21
156.80082872928176
  0
LINE
  8
_1-4_
  6
CONTINUOUS
 62
    6
 10
151.83314917127072
 20
158.40082872928176
 11
151.83314917127072
 21
156.80082872928176
  0
LINE
  8
_1-4_
  6
CONTINUOUS
 62
    6
 10
152.53314917127074
 20
161.00082872928178
 11
152.53314917127074
 21
156.80082872928176
  0
LINE
  8
_1-4_
  6
CONTINUOUS
 62
    6
 10
154.78314917127074
 20
163.35082872928177
 11
154.78314917127074
 21
161.00082872928178
  0
LINE
  8
_1-4_
  6
CONTINUOUS
 62
    6
 10
156.78314917127074
 20
163.35082872928177
 11
156.78314917127074
 21
161.00082872928178
  0
ARC
  8
_1-4_
  6
CONTINUOUS
 62
    6
 10
155.78314917127074
 20
158.40082872928176
 40
1.05
 50
0
 51
180
  0
ARC
  8
_1-4_
  6
CONTINUOUS
 62
    6
 10
154.3831491712707
 20
156.80082872928176
 40
0.35
 50
178.97719497626443
 51
0
  0
ARC
  8
_1-4_
  6
CONTINUOUS
 62
    6
 10
157.18314917127071
 20
156.80082872928176
 40
0.35
 50
180
 51
0
  0
LINE
  8
_1-4_
  6
CONTINUOUS
 62
    6
 10
154.03314917127074
 20
161.00082872928178
 11
154.03314917127074
 21
156.80707635779257
  0
LINE
  8
_1-4_
  6
CONTINUOUS
 62
    6
 10
154.73314917127072
 20
158.40082872928176
 11
154.73314917127072
 21
156.80082872928176
  0
LINE
  8
_1-4_
  6
CONTINUOUS
 62
    6
 10
156.83314917127072
 20
158.40082872928176
 11
156.83314917127072
 21
156.80082872928176
  0
LINE
  8
_1-4_
  6
CONTINUOUS
 62
    6
 10
157.53314917127074
 20
161.00082872928178
 11
157.53314917127074
 21
156.80082872928176
  0
LINE
  8
_1-4_
  6
CONTINUOUS
 62
    6
 10
149.03314917127074
 20
161.00082872928178
 11
152.53314917127074
 21
161.00082872928178
  0
LINE
  8
_1-4_
  6
CONTINUOUS
 62
    6
 10
154.03314917127074
 20
161.00082872928178
 11
157.53314917127074
 21
161.00082872928178
  0
LINE
  8
_1-4_
  6
CONTINUOUS
 62
    6
 10
147.53314917127074
 20
138.10082872928177
 11
144.03314917127074
 21
138.10082872928177
  0
LINE
  8
_1-4_
  6
CONTINUOUS
 62
    6
 10
147.53314917127074
 20
139.10082872928177
 11
147.53314917127074
 21
138.10082872928177
  0
LINE
  8
_1-4_
  6
CONTINUOUS
 62
    6
 10
146.78314917127074
 20
138.35082872928177
 11
144.78314917127074
 21
138.35082872928177
  0
LINE
  8
_1-4_
  6
CONTINUOUS
 62
    6
 10
144.03314917127074
 20
139.10082872928177
 11
144.03314917127074
 21
138.10082872928177
  0
LINE
  8
_1-4_
  6
CONTINUOUS
 62
    6
 10
146.78314917127074
 20
138.35082872928177
 11
146.78314917127074
 21
139.10082872928177
  0
LINE
  8
_1-4_
  6
CONTINUOUS
 62
    6
 10
144.78314917127074
 20
138.35082872928177
 11
144.78314917127074
 21
139.10082872928177
  0
LINE
  8
_1-4_
  6
CONTINUOUS
 62
    6
 10
146.78314917127074
 20
138.60082872928177
 11
144.78314917127074
 21
138.60082872928177
  0
LINE
  8
_1-4_
  6
CONTINUOUS
 62
    6
 10
144.78314917127074
 20
137.60082872928177
 11
144.78314917127074
 21
138.10082872928177
  0
LINE
  8
_1-4_
  6
CONTINUOUS
 62
    6
 10
146.78314917127074
 20
137.60082872928177
 11
146.78314917127074
 21
138.10082872928177
  0
LINE
  8
_1-4_
  6
CONTINUOUS
 62
    6
 10
149.78314917127074
 20
137.60082872928177
 11
151.78314917127074
 21
137.60082872928177
  0
LINE
  8
_1-4_
  6
CONTINUOUS
 62
    6
 10
152.53314917127074
 20
139.10082872928177
 11
151.78314917127074
 21
139.10082872928177
  0
LINE
  8
_1-4_
  6
CONTINUOUS
 62
    6
 10
149.78314917127074
 20
139.10082872928177
 11
149.03314917127074
 21
139.10082872928177
  0
LINE
  8
_1-4_
  6
CONTINUOUS
 62
    6
 10
152.53314917127074
 20
138.85082872928177
 11
151.78314917127074
 21
138.85082872928177
  0
LINE
  8
_1-4_
  6
CONTINUOUS
 62
    6
 10
149.78314917127074
 20
138.85082872928177
 11
149.03314917127074
 21
138.85082872928177
  0
LINE
  8
_1-4_
  6
CONTINUOUS
 62
    6
 10
152.53314917127074
 20
138.10082872928177
 11
149.03314917127074
 21
138.10082872928177
  0
LINE
  8
_1-4_
  6
CONTINUOUS
 62
    6
 10
152.53314917127074
 20
139.10082872928177
 11
152.53314917127074
 21
138.10082872928177
  0
LINE
  8
_1-4_
  6
CONTINUOUS
 62
    6
 10
151.78314917127074
 20
138.35082872928177
 11
149.78314917127074
 21
138.35082872928177
  0
LINE
  8
_1-4_
  6
CONTINUOUS
 62
    6
 10
149.03314917127074
 20
139.10082872928177
 11
149.03314917127074
 21
138.10082872928177
  0
LINE
  8
_1-4_
  6
CONTINUOUS
 62
    6
 10
151.78314917127074
 20
138.35082872928177
 11
151.78314917127074
 21
139.10082872928177
  0
LINE
  8
_1-4_
  6
CONTINUOUS
 62
    6
 10
149.78314917127074
 20
138.35082872928177
 11
149.78314917127074
 21
139.10082872928177
  0
LINE
  8
_1-4_
  6
CONTINUOUS
 62
    6
 10
151.78314917127074
 20
138.60082872928177
 11
149.78314917127074
 21
138.60082872928177
  0
LINE
  8
_1-4_
  6
CONTINUOUS
 62
    6
 10
149.78314917127074
 20
137.60082872928177
 11
149.78314917127074
 21
138.10082872928177
  0
LINE
  8
_1-4_
  6
CONTINUOUS
 62
    6
 10
151.78314917127074
 20
137.60082872928177
 11
151.78314917127074
 21
138.10082872928177
  0
LINE
  8
_1-4_
  6
CONTINUOUS
 62
    6
 10
154.78314917127074
 20
137.60082872928177
 11
156.78314917127074
 21
137.60082872928177
  0
LINE
  8
_1-4_
  6
CONTINUOUS
 62
    6
 10
157.53314917127074
 20
139.10082872928177
 11
156.78314917127074
 21
139.10082872928177
  0
LINE
  8
_1-4_
  6
CONTINUOUS
 62
    6
 10
154.78314917127074
 20
139.10082872928177
 11
154.03314917127074
 21
139.10082872928177
  0
LINE
  8
_1-4_
  6
CONTINUOUS
 62
    6
 10
157.53314917127074
 20
138.85082872928177
 11
156.78314917127074
 21
138.85082872928177
  0
LINE
  8
_1-4_
  6
CONTINUOUS
 62
    6
 10
154.78314917127074
 20
138.85082872928177
 11
154.03314917127074
 21
138.85082872928177
  0
LINE
  8
_1-4_
  6
CONTINUOUS
 62
    6
 10
157.53314917127074
 20
138.10082872928177
 11
154.03314917127074
 21
138.10082872928177
  0
LINE
  8
_1-4_
  6
CONTINUOUS
 62
    6
 10
157.53314917127074
 20
139.10082872928177
 11
157.53314917127074
 21
138.10082872928177
  0
LINE
  8
_1-4_
  6
CONTINUOUS
 62
    6
 10
156.78314917127074
 20
138.35082872928177
 11
154.78314917127074
 21
138.35082872928177
  0
LINE
  8
_1-4_
  6
CONTINUOUS
 62
    6
 10
154.03314917127074
 20
139.10082872928177
 11
154.03314917127074
 21
138.10082872928177
  0
LINE
  8
_1-4_
  6
CONTINUOUS
 62
    6
 10
156.78314917127074
 20
138.35082872928177
 11
156.78314917127074
 21
139.10082872928177
  0
LINE
  8
_1-4_
  6
CONTINUOUS
 62
    6
 10
154.78314917127074
 20
138.35082872928177
 11
154.78314917127074
 21
139.10082872928177
  0
LINE
  8
_1-4_
  6
CONTINUOUS
 62
    6
 10
156.78314917127074
 20
138.60082872928177
 11
154.78314917127074
 21
138.60082872928177
  0
LINE
  8
_1-4_
  6
CONTINUOUS
 62
    6
 10
154.78314917127074
 20
137.60082872928177
 11
154.78314917127074
 21
138.10082872928177
  0
LINE
  8
_1-4_
  6
CONTINUOUS
 62
    6
 10
156.78314917127074
 20
137.60082872928177
 11
156.78314917127074
 21
138.10082872928177
  0
LINE
  8
_1-1_
  6
CONTINUOUS
 62
    4
 10
145.78314917127074
 20
148.45082872928177
 11
150.78314917127074
 21
148.45082872928177
  0
LINE
  8
_1-1_
  6
CONTINUOUS
 62
    4
 10
145.78314917127074
 20
148.45082872928177
 11
147.71500082384887
 21
148.96846681948682
  0
LINE
  8
_1-1_
  6
CONTINUOUS
 62
    4
 10
145.78314917127074
 20
148.45082872928177
 11
147.71500082384887
 21
147.93319063907671
  0
LINE
  8
_1-1_
  6
CONTINUOUS
 62
    4
 10
150.78314917127074
 20
148.45082872928177
 11
148.85129751869258
 21
148.96846681948682
  0
LINE
  8
_1-1_
  6
CONTINUOUS
 62
    4
 10
150.78314917127074
 20
148.45082872928177
 11
148.85129751869258
 21
147.93319063907671
  0
LINE
  8
_1-1_
  6
CONTINUOUS
 62
    4
 10
145.78314917127074
 20
148.45082872928177
 11
145.78314917127074
 21
158.45082872928177
  0
LINE
  8
_1-1_
  6
CONTINUOUS
 62
    4
 10
150.78314917127074
 20
148.45082872928177
 11
150.78314917127074
 21
158.45082872928177
  0
TEXT
  8
_1-1_
 62
    7
 10
146.65814917127074
 20
148.95082872928177
 40
3
 41
1
 50
0
  1
10
  0
LINE
  8
_1-1_
  6
CONTINUOUS
 62
    4
 10
150.78314917127074
 20
148.45082872928177
 11
155.78314917127074
 21
148.45082872928177
  0
LINE
  8
_1-1_
  6
CONTINUOUS
 62
    4
 10
150.78314917127074
 20
148.45082872928177
 11
152.71500082384887
 21
148.96846681948682
  0
LINE
  8
_1-1_
  6
CONTINUOUS
 62
    4
 10
150.78314917127074
 20
148.45082872928177
 11
152.71500082384887
 21
147.93319063907671
  0
LINE
  8
_1-1_
  6
CONTINUOUS
 62
    4
 10
155.78314917127074
 20
148.45082872928177
 11
153.85129751869258
 21
148.96846681948682
  0
LINE
  8
_1-1_
  6
CONTINUOUS
 62
    4
 10
155.78314917127074
 20
148.45082872928177
 11
153.85129751869258
 21
147.93319063907671
  0
LINE
  8
_1-1_
  6
CONTINUOUS
 62
    4
 10
155.78314917127074
 20
148.45082872928177
 11
155.78314917127074
 21
158.45082872928177
  0
TEXT
  8
_1-1_
 62
    7
 10
151.65814917127074
 20
148.95082872928177
 40
3
 41
1
 50
0
  1
10
  0
LINE
  8
_1-1_
  6
CONTINUOUS
 62
    4
 10
155.78314917127074
 20
148.45082872928177
 11
164.03314917127074
 21
148.45082872928177
  0
LINE
  8
_1-1_
  6
CONTINUOUS
 62
    4
 10
155.78314917127074
 20
148.45082872928177
 11
157.71500082384887
 21
148.96846681948682
  0
LINE
  8
_1-1_
  6
CONTINUOUS
 62
    4
 10
155.78314917127074
 20
148.45082872928177
 11
157.71500082384887
 21
147.93319063907671
  0
LINE
  8
_1-1_
  6
CONTINUOUS
 62
    4
 10
164.03314917127074
 20
148.45082872928177
 11
162.10129751869258
 21
148.96846681948682
  0
LINE
  8
_1-1_
  6
CONTINUOUS
 62
    4
 10
164.03314917127074
 20
148.45082872928177
 11
162.10129751869258
 21
147.93319063907671
  0
LINE
  8
_1-1_
  6
CONTINUOUS
 62
    4
 10
164.03314917127074
 20
148.45082872928177
 11
164.03314917127074
 21
158.45082872928177
  0
TEXT
  8
_1-1_
 62
    7
 10
156.53314917127074
 20
148.95082872928177
 40
3
 41
1
 50
0
  1
16.5
  0
LINE
  8
_1-2_
  6
CONTINUOUS
 62
    6
 10
157.53314917127074
 20
138.35082872928177
 11
164.03314917127074
 21
138.35082872928177
  0
LINE
  8
_1-2_
  6
CONTINUOUS
 62
    6
 10
152.53314917127074
 20
138.35082872928177
 11
154.03314917127074
 21
138.35082872928177
  0
LINE
  8
_1-2_
  6
CONTINUOUS
 62
    6
 10
147.53314917127074
 20
138.35082872928177
 11
149.03314917127074
 21
138.35082872928177
  0
LINE
  8
_1-2_
  6
CONTINUOUS
 62
    6
 10
144.53314917127074
 20
137.85082872928177
 11
144.78314917127074
 21
137.85082872928177
  0
LINE
  8
_1-2_
  6
CONTINUOUS
 62
    6
 10
146.78314917127074
 20
137.85082872928177
 11
149.78314917127074
 21
137.85082872928177
  0
LINE
  8
_1-2_
  6
CONTINUOUS
 62
    6
 10
151.78314917127074
 20
137.85082872928177
 11
154.78314917127074
 21
137.85082872928177
  0
LINE
  8
_1-2_
  6
CONTINUOUS
 62
    6
 10
156.78314917127074
 20
137.85082872928177
 11
163.53314917127074
 21
137.85082872928177
  0
LINE
  8
_1-2_
  6
CONTINUOUS
 62
    6
 10
194.03314917127074
 20
138.35082872928177
 11
194.03314917127074
 21
124.85082872928177
  0
LINE
  8
_1-2_
  6
CONTINUOUS
 62
    6
 10
174.03314917127074
 20
173.85082872928177
 11
194.03314917127074
 21
173.85082872928177
  0
LINE
  8
_1-2_
  6
CONTINUOUS
 62
    6
 10
174.03314917127074
 20
124.85082872928177
 11
194.03314917127074
 21
124.85082872928177
  0
LINE
  8
_1-2_
  6
CONTINUOUS
 62
    6
 10
174.03314917127074
 20
173.85082872928177
 11
174.03314917127074
 21
163.35082872928177
  0
LINE
  8
_1-2_
  6
CONTINUOUS
 62
    6
 10
174.03314917127074
 20
138.35082872928177
 11
174.03314917127074
 21
124.85082872928177
  0
LINE
  8
_1-2_
  6
CONTINUOUS
 62
    6
 10
174.03314917127074
 20
163.35082872928177
 11
194.03314917127074
 21
163.35082872928177
  0
LINE
  8
_1-2_
  6
CONTINUOUS
 62
    6
 10
194.03314917127074
 20
173.85082872928177
 11
194.03314917127074
 21
163.35082872928177
  0
LINE
  8
_1-2_
  6
CONTINUOUS
 62
    6
 10
193.53314917127074
 20
137.85082872928177
 11
193.53314917127074
 21
125.35082872928177
  0
LINE
  8
_1-2_
  6
CONTINUOUS
 62
    6
 10
174.53314917127074
 20
125.35082872928177
 11
193.53314917127074
 21
125.35082872928177
  0
LINE
  8
_1-2_
  6
CONTINUOUS
 62
    6
 10
174.53314917127074
 20
137.85082872928177
 11
174.53314917127074
 21
125.35082872928177
  0
LINE
  8
_1-2_
  6
CONTINUOUS
 62
    6
 10
224.03314917127074
 20
138.35082872928177
 11
224.03314917127074
 21
124.85082872928177
  0
LINE
  8
_1-2_
  6
CONTINUOUS
 62
    6
 10
204.03314917127074
 20
173.85082872928177
 11
224.03314917127074
 21
173.85082872928177
  0
LINE
  8
_1-2_
  6
CONTINUOUS
 62
    6
 10
204.03314917127074
 20
124.85082872928177
 11
224.03314917127074
 21
124.85082872928177
  0
LINE
  8
_1-2_
  6
CONTINUOUS
 62
    6
 10
204.03314917127074
 20
173.85082872928177
 11
204.03314917127074
 21
163.35082872928177
  0
LINE
  8
_1-2_
  6
CONTINUOUS
 62
    6
 10
204.03314917127074
 20
163.35082872928177
 11
224.03314917127074
 21
163.35082872928177
  0
LINE
  8
_1-2_
  6
CONTINUOUS
 62
    6
 10
224.03314917127074
 20
173.85082872928177
 11
224.03314917127074
 21
163.35082872928177
  0
LINE
  8
_1-2_
  6
CONTINUOUS
 62
    6
 10
223.53314917127074
 20
137.85082872928177
 11
223.53314917127074
 21
125.35082872928177
  0
LINE
  8
_1-2_
  6
CONTINUOUS
 62
    6
 10
204.53314917127074
 20
125.35082872928177
 11
223.53314917127074
 21
125.35082872928177
  0
LINE
  8
_1-2_
  6
CONTINUOUS
 62
    6
 10
204.53314917127074
 20
137.85082872928177
 11
204.53314917127074
 21
125.35082872928177
  0
LINE
  8
_1-1_
  6
CONTINUOUS
 62
    4
 10
204.03314917127074
 20
113.85082872928177
 11
224.03314917127074
 21
113.85082872928177
  0
LINE
  8
_1-1_
  6
CONTINUOUS
 62
    4
 10
204.03314917127074
 20
113.85082872928177
 11
205.96500082384887
 21
114.3684668194868
  0
LINE
  8
_1-1_
  6
CONTINUOUS
 62
    4
 10
204.03314917127074
 20
113.85082872928177
 11
205.96500082384887
 21
113.33319063907672
  0
LINE
  8
_1-1_
  6
CONTINUOUS
 62
    4
 10
224.03314917127074
 20
113.85082872928177
 11
222.10129751869258
 21
114.3684668194868
  0
LINE
  8
_1-1_
  6
CONTINUOUS
 62
    4
 10
224.03314917127074
 20
113.85082872928177
 11
222.10129751869258
 21
113.33319063907672
  0
LINE
  8
_1-1_
  6
CONTINUOUS
 62
    4
 10
204.03314917127074
 20
113.85082872928177
 11
204.03314917127074
 21
123.85082872928177
  0
LINE
  8
_1-1_
  6
CONTINUOUS
 62
    4
 10
224.03314917127074
 20
113.85082872928177
 11
224.03314917127074
 21
123.85082872928177
  0
LINE
  8
_1-1_
  6
CONTINUOUS
 62
    4
 10
235.03314917127074
 20
124.85082872928177
 11
235.03314917127074
 21
138.35082872928177
  0
LINE
  8
_1-1_
  6
CONTINUOUS
 62
    4
 10
235.03314917127074
 20
124.85082872928177
 11
234.51551108106568
 21
126.7826803818599
  0
LINE
  8
_1-1_
  6
CONTINUOUS
 62
    4
 10
235.03314917127074
 20
124.85082872928177
 11
235.55078726147576
 21
126.7826803818599
  0
LINE
  8
_1-1_
  6
CONTINUOUS
 62
    4
 10
235.03314917127074
 20
138.35082872928177
 11
234.51551108106568
 21
136.41897707670364
  0
LINE
  8
_1-1_
  6
CONTINUOUS
 62
    4
 10
235.03314917127074
 20
138.35082872928177
 11
235.55078726147576
 21
136.41897707670364
  0
LINE
  8
_1-1_
  6
CONTINUOUS
 62
    4
 10
235.03314917127074
 20
124.85082872928177
 11
225.03314917127074
 21
124.85082872928177
  0
LINE
  8
_1-1_
  6
CONTINUOUS
 62
    4
 10
235.03314917127074
 20
138.35082872928177
 11
225.03314917127074
 21
138.35082872928177
  0
LINE
  8
_1-4_
  6
CONTINUOUS
 62
    6
 10
154.03314917127074
 20
108.50082872928176
 11
157.53314917127074
 21
108.50082872928176
  0
LINE
  8
_1-4_
  6
CONTINUOUS
 62
    6
 10
154.78314917127074
 20
110.85082872928177
 11
154.78314917127074
 21
108.50082872928176
  0
LINE
  8
_1-4_
  6
CONTINUOUS
 62
    6
 10
156.78314917127074
 20
110.85082872928177
 11
156.78314917127074
 21
108.50082872928176
  0
ARC
  8
_1-4_
  6
CONTINUOUS
 62
    6
 10
155.78314917127074
 20
105.90082872928177
 40
1.05
 50
0
 51
180
  0
ARC
  8
_1-4_
  6
CONTINUOUS
 62
    6
 10
154.3831491712707
 20
104.30082872928176
 40
0.35
 50
178.97719497626443
 51
0
  0
ARC
  8
_1-4_
  6
CONTINUOUS
 62
    6
 10
157.18314917127071
 20
104.30082872928176
 40
0.35
 50
180
 51
0
  0
LINE
  8
_1-4_
  6
CONTINUOUS
 62
    6
 10
154.03314917127074
 20
108.50082872928176
 11
154.03314917127074
 21
104.30707635779257
  0
LINE
  8
_1-4_
  6
CONTINUOUS
 62
    6
 10
154.73314917127072
 20
105.90082872928177
 11
154.73314917127072
 21
104.30082872928176
  0
LINE
  8
_1-4_
  6
CONTINUOUS
 62
    6
 10
156.83314917127072
 20
105.90082872928177
 11
156.83314917127072
 21
104.30082872928176
  0
LINE
  8
_1-4_
  6
CONTINUOUS
 62
    6
 10
157.53314917127074
 20
108.50082872928176
 11
157.53314917127074
 21
104.30082872928176
  0
LINE
  8
_1-4_
  6
CONTINUOUS
 62
    6
 10
154.78314917127074
 20
110.85082872928177
 11
156.78314917127074
 21
110.85082872928177
  0
LINE
  8
_1-1_
  6
CONTINUOUS
 62
    4
 10
157.53314917127074
 20
93.300828729281761
 11
159.46500082384887
 21
93.818466819486815
  0
LINE
  8
_1-1_
  6
CONTINUOUS
 62
    4
 10
157.53314917127074
 20
93.300828729281761
 11
159.46500082384887
 21
92.783190639076736
  0
LINE
  8
_1-1_
  6
CONTINUOUS
 62
    4
 10
154.03320493694474
 20
93.300828729281761
 11
152.10135328436661
 21
93.818466819486815
  0
LINE
  8
_1-1_
  6
CONTINUOUS
 62
    4
 10
154.03320493694474
 20
93.300828729281761
 11
152.10135328436661
 21
92.783190639076736
  0
LINE
  8
_1-1_
  6
CONTINUOUS
 62
    4
 10
157.53314917127074
 20
93.300828729281761
 11
157.53314917127074
 21
103.30082872928176
  0
LINE
  8
_1-1_
  6
CONTINUOUS
 62
    4
 10
154.03320493694474
 20
93.300828729281761
 11
154.03320493694474
 21
103.30082872928176
  0
LINE
  8
_1-1_
  6
CONTINUOUS
 62
    4
 10
156.83314917127072
 20
99.650798205182994
 11
158.76500082384885
 21
100.16843629538803
  0
LINE
  8
_1-1_
  6
CONTINUOUS
 62
    4
 10
156.83314917127072
 20
99.650798205182994
 11
158.76500082384885
 21
99.133160114977954
  0
LINE
  8
_1-1_
  6
CONTINUOUS
 62
    4
 10
154.73314917127072
 20
99.650798205182994
 11
152.80129751869259
 21
100.16843629538803
  0
LINE
  8
_1-1_
  6
CONTINUOUS
 62
    4
 10
154.73314917127072
 20
99.650798205182994
 11
152.80129751869259
 21
99.133160114977954
  0
LINE
  8
_1-1_
  6
CONTINUOUS
 62
    4
 10
154.73314917127072
 20
103.30082872928176
 11
154.73314917127072
 21
99.650798205182994
  0
LINE
  8
_1-1_
  6
CONTINUOUS
 62
    4
 10
156.83314917127072
 20
103.30082872928176
 11
156.83314917127072
 21
99.650798205182994
  0
TEXT
  8
_1-1_
 62
    7
 10
145.22956869448427
 20
100.15079820518299
 40
3
 41
1
 50
0
  1
4.2
  0
TEXT
  8
_1-1_
 62
    7
 10
147.02833094227893
 20
93.800828729281761
 40
3
 41
1
 50
0
  1
7
  0
LINE
  8
_1-1_
  6
CONTINUOUS
 62
    4
 10
160.16394188211592
 20
99.650798205182994
 11
143.9748756142975
 21
99.650798205182994
  0
LINE
  8
_1-1_
  6
CONTINUOUS
 62
    4
 10
160.16394188211592
 20
93.300828729281761
 11
143.9748756142975
 21
93.300828729281761
  0
LINE
  8
_1-1_
  6
CONTINUOUS
 62
    4
 10
168.53314917127074
 20
108.50082872928176
 11
168.01551108106568
 21
110.43268038185991
  0
LINE
  8
_1-1_
  6
CONTINUOUS
 62
    4
 10
168.53314917127074
 20
108.50082872928176
 11
169.05078726147576
 21
110.43268038185991
  0
LINE
  8
_1-1_
  6
CONTINUOUS
 62
    4
 10
168.53314917127074
 20
103.95082872928177
 11
168.01551108106568
 21
102.01897707670364
  0
LINE
  8
_1-1_
  6
CONTINUOUS
 62
    4
 10
168.53314917127074
 20
103.95082872928177
 11
169.05078726147576
 21
102.01897707670364
  0
LINE
  8
_1-1_
  6
CONTINUOUS
 62
    4
 10
168.53314917127074
 20
108.50082872928176
 11
158.53314917127074
 21
108.50082872928176
  0
LINE
  8
_1-1_
  6
CONTINUOUS
 62
    4
 10
168.53314917127074
 20
103.95082872928177
 11
158.53314917127074
 21
103.95082872928177
  0
LINE
  8
_1-1_
  6
CONTINUOUS
 62
    4
 10
163.43101248435639
 20
103.95082872928177
 11
162.91337439415133
 21
102.01897707670364
  0
LINE
  8
_1-1_
  6
CONTINUOUS
 62
    4
 10
163.43101248435639
 20
103.95082872928177
 11
163.94865057456144
 21
102.01897707670364
  0
LINE
  8
_1-1_
  6
CONTINUOUS
 62
    4
 10
163.43101248435639
 20
103.95082872928177
 11
167.18314917127071
 21
103.95082872928177
  0
TEXT
  8
_1-1_
 62
    7
 10
168.03314917127074
 20
111.3163559220914
 40
3
 41
1
 50
90
  1
9.1
  0
LINE
  8
_1-1_
  6
CONTINUOUS
 62
    4
 10
168.53314917127074
 20
116.68863421307486
 11
168.53314917127074
 21
100.95762644607919
  0
LINE
  8
_1-1_
  6
CONTINUOUS
 62
    4
 10
163.43101248435639
 20
116.68863421307486
 11
163.43101248435639
 21
100.95762644607919
  0
LINE
  8
_1-2_
  6
CONTINUOUS
 62
    6
 10
189.03314917127071
 20
115.85082872928177
 11
189.03314917127071
 21
102.35082872928177
  0
LINE
  8
_1-2_
  6
CONTINUOUS
 62
    6
 10
199.53314917127071
 20
115.85082872928177
 11
199.53314917127071
 21
102.35082872928177
  0
LINE
  8
_1-2_
  6
CONTINUOUS
 62
    6
 10
189.03314917127071
 20
102.35082872928177
 11
199.53314917127071
 21
102.35082872928177
  0
LINE
  8
_1-2_
  6
CONTINUOUS
 62
    6
 10
189.03314917127071
 20
115.85082872928177
 11
199.53314917127071
 21
115.85082872928177
  0
LINE
  8
_1-4_
  6
CONTINUOUS
 62
    6
 10
186.68314917127071
 20
115.35082872928177
 11
186.43314917127071
 21
115.85082872928177
  0
LINE
  8
_1-4_
  6
CONTINUOUS
 62
    6
 10
186.18314917127071
 20
115.60082872928177
 11
186.43314917127071
 21
115.10082872928177
  0
LINE
  8
_1-4_
  6
CONTINUOUS
 62
    6
 10
186.43314917127071
 20
115.85082872928177
 11
182.1331491712707
 21
116.60082872928177
  0
LINE
  8
_1-4_
  6
CONTINUOUS
 62
    6
 10
182.1331491712707
 20
116.35082872928177
 11
186.18314917127071
 21
115.60082872928177
  0
LINE
  8
_1-4_
  6
CONTINUOUS
 62
    6
 10
186.68314917127071
 20
115.35082872928177
 11
189.03314917127071
 21
115.35082872928177
  0
LINE
  8
_1-4_
  6
CONTINUOUS
 62
    6
 10
186.43314917127071
 20
115.10082872928177
 11
189.03314917127071
 21
115.10082872928177
  0
LINE
  8
_1-4_
  6
CONTINUOUS
 62
    6
 10
182.1331491712707
 20
116.60082872928177
 11
182.1331491712707
 21
116.35082872928177
  0
LINE
  8
_1-1_
  6
CONTINUOUS
 62
    4
 10
189.03314917127071
 20
91.350828729281773
 11
199.53314917127071
 21
91.350828729281773
  0
LINE
  8
_1-1_
  6
CONTINUOUS
 62
    4
 10
189.03314917127071
 20
91.350828729281773
 11
190.96500082384887
 21
91.868466819486798
  0
LINE
  8
_1-1_
  6
CONTINUOUS
 62
    4
 10
189.03314917127071
 20
91.350828729281773
 11
190.96500082384887
 21
90.833190639076719
  0
LINE
  8
_1-1_
  6
CONTINUOUS
 62
    4
 10
199.53314917127071
 20
91.350828729281773
 11
197.60129751869258
 21
91.868466819486798
  0
LINE
  8
_1-1_
  6
CONTINUOUS
 62
    4
 10
199.53314917127071
 20
91.350828729281773
 11
197.60129751869258
 21
90.833190639076719
  0
LINE
  8
_1-1_
  6
CONTINUOUS
 62
    4
 10
189.03314917127071
 20
91.350828729281773
 11
189.03314917127071
 21
101.35082872928177
  0
LINE
  8
_1-1_
  6
CONTINUOUS
 62
    4
 10
199.53314917127071
 20
91.350828729281773
 11
199.53314917127071
 21
101.35082872928177
  0
LINE
  8
_1-4_
  6
CONTINUOUS
 62
    6
 10
221.28314917127074
 20
163.35082872928177
 11
221.28314917127074
 21
161.00082872928178
  0
LINE
  8
_1-4_
  6
CONTINUOUS
 62
    6
 10
223.28314917127074
 20
163.35082872928177
 11
223.28314917127074
 21
161.00082872928178
  0
ARC
  8
_1-4_
  6
CONTINUOUS
 62
    6
 10
222.28314917127074
 20
158.40082872928176
 40
1.05
 50
0
 51
180
  0
ARC
  8
_1-4_
  6
CONTINUOUS
 62
    6
 10
220.8831491712707
 20
156.80082872928176
 40
0.35
 50
178.97719497626443
 51
0
  0
ARC
  8
_1-4_
  6
CONTINUOUS
 62
    6
 10
223.68314917127071
 20
156.80082872928176
 40
0.35
 50
180
 51
0
  0
LINE
  8
_1-4_
  6
CONTINUOUS
 62
    6
 10
220.53314917127074
 20
161.00082872928178
 11
220.53314917127074
 21
156.80707635779257
  0
LINE
  8
_1-4_
  6
CONTINUOUS
 62
    6
 10
221.23314917127072
 20
158.40082872928176
 11
221.23314917127072
 21
156.80082872928176
  0
LINE
  8
_1-4_
  6
CONTINUOUS
 62
    6
 10
223.33314917127072
 20
158.40082872928176
 11
223.33314917127072
 21
156.80082872928176
  0
LINE
  8
_1-4_
  6
CONTINUOUS
 62
    6
 10
224.03314917127074
 20
161.00082872928178
 11
224.03314917127074
 21
156.80082872928176
  0
LINE
  8
_1-4_
  6
CONTINUOUS
 62
    6
 10
220.53314917127074
 20
161.00082872928178
 11
224.03314917127074
 21
161.00082872928178
  0
LINE
  8
_1-4_
  6
CONTINUOUS
 62
    6
 10
216.28314917127074
 20
163.35082872928177
 11
216.28314917127074
 21
161.00082872928178
  0
LINE
  8
_1-4_
  6
CONTINUOUS
 62
    6
 10
218.28314917127074
 20
163.35082872928177
 11
218.28314917127074
 21
161.00082872928178
  0
ARC
  8
_1-4_
  6
CONTINUOUS
 62
    6
 10
217.28314917127074
 20
158.40082872928176
 40
1.05
 50
0
 51
180
  0
ARC
  8
_1-4_
  6
CONTINUOUS
 62
    6
 10
215.8831491712707
 20
156.80082872928176
 40
0.35
 50
178.97719497626443
 51
0
  0
ARC
  8
_1-4_
  6
CONTINUOUS
 62
    6
 10
218.68314917127071
 20
156.80082872928176
 40
0.35
 50
180
 51
0
  0
LINE
  8
_1-4_
  6
CONTINUOUS
 62
    6
 10
215.53314917127074
 20
161.00082872928178
 11
215.53314917127074
 21
156.80707635779257
  0
LINE
  8
_1-4_
  6
CONTINUOUS
 62
    6
 10
216.23314917127072
 20
158.40082872928176
 11
216.23314917127072
 21
156.80082872928176
  0
LINE
  8
_1-4_
  6
CONTINUOUS
 62
    6
 10
218.33314917127072
 20
158.40082872928176
 11
218.33314917127072
 21
156.80082872928176
  0
LINE
  8
_1-4_
  6
CONTINUOUS
 62
    6
 10
219.03314917127074
 20
161.00082872928178
 11
219.03314917127074
 21
156.80082872928176
  0
LINE
  8
_1-4_
  6
CONTINUOUS
 62
    6
 10
215.53314917127074
 20
161.00082872928178
 11
219.03314917127074
 21
161.00082872928178
  0
LINE
  8
_1-4_
  6
CONTINUOUS
 62
    6
 10
210.53314917127074
 20
161.00082872928178
 11
214.03314917127074
 21
161.00082872928178
  0
LINE
  8
_1-4_
  6
CONTINUOUS
 62
    6
 10
211.28314917127074
 20
163.35082872928177
 11
211.28314917127074
 21
161.00082872928178
  0
LINE
  8
_1-4_
  6
CONTINUOUS
 62
    6
 10
213.28314917127074
 20
163.35082872928177
 11
213.28314917127074
 21
161.00082872928178
  0
ARC
  8
_1-4_
  6
CONTINUOUS
 62
    6
 10
212.28314917127074
 20
158.40082872928176
 40
1.05
 50
0
 51
180
  0
ARC
  8
_1-4_
  6
CONTINUOUS
 62
    6
 10
210.8831491712707
 20
156.80082872928176
 40
0.35
 50
178.97719497626443
 51
0
  0
ARC
  8
_1-4_
  6
CONTINUOUS
 62
    6
 10
213.68314917127071
 20
156.80082872928176
 40
0.35
 50
180
 51
0
  0
LINE
  8
_1-4_
  6
CONTINUOUS
 62
    6
 10
210.53314917127074
 20
161.00082872928178
 11
210.53314917127074
 21
156.80707635779257
  0
LINE
  8
_1-4_
  6
CONTINUOUS
 62
    6
 10
211.23314917127072
 20
158.40082872928176
 11
211.23314917127072
 21
156.80082872928176
  0
LINE
  8
_1-4_
  6
CONTINUOUS
 62
    6
 10
213.33314917127072
 20
158.40082872928176
 11
213.33314917127072
 21
156.80082872928176
  0
LINE
  8
_1-4_
  6
CONTINUOUS
 62
    6
 10
214.03314917127074
 20
161.00082872928178
 11
214.03314917127074
 21
156.80082872928176
  0
LINE
  8
_1-1_
  6
CONTINUOUS
 62
    4
 10
235.03314917127074
 20
156.45082872928177
 11
235.03314917127074
 21
163.35082872928177
  0
LINE
  8
_1-1_
  6
CONTINUOUS
 62
    4
 10
235.03314917127074
 20
156.45082872928177
 11
234.51551108106568
 21
158.3826803818599
  0
LINE
  8
_1-1_
  6
CONTINUOUS
 62
    4
 10
235.03314917127074
 20
156.45082872928177
 11
235.55078726147576
 21
158.3826803818599
  0
LINE
  8
_1-1_
  6
CONTINUOUS
 62
    4
 10
235.03314917127074
 20
163.35082872928177
 11
234.51551108106568
 21
161.41897707670364
  0
LINE
  8
_1-1_
  6
CONTINUOUS
 62
    4
 10
235.03314917127074
 20
163.35082872928177
 11
235.55078726147576
 21
161.41897707670364
  0
LINE
  8
_1-1_
  6
CONTINUOUS
 62
    4
 10
235.03314917127074
 20
156.45082872928177
 11
225.03314917127071
 21
156.45082872928177
  0
LINE
  8
_1-1_
  6
CONTINUOUS
 62
    4
 10
235.03314917127074
 20
163.35082872928177
 11
225.03314917127071
 21
163.35082872928177
  0
TEXT
  8
_1-1_
 62
    7
 10
234.53314917127074
 20
156.52582872928176
 40
3
 41
1
 50
90
  1
13.8
  0
LINE
  8
_1-1_
  6
CONTINUOUS
 62
    4
 10
204.03314917127074
 20
148.41476006670902
 11
212.28314917127074
 21
148.41476006670902
  0
LINE
  8
_1-1_
  6
CONTINUOUS
 62
    4
 10
204.03314917127074
 20
148.41476006670902
 11
205.96500082384887
 21
148.93239815691408
  0
LINE
  8
_1-1_
  6
CONTINUOUS
 62
    4
 10
204.03314917127074
 20
148.41476006670902
 11
205.96500082384887
 21
147.897121976504
  0
LINE
  8
_1-1_
  6
CONTINUOUS
 62
    4
 10
212.28314917127074
 20
148.41476006670902
 11
210.35129751869258
 21
148.93239815691408
  0
LINE
  8
_1-1_
  6
CONTINUOUS
 62
    4
 10
212.28314917127074
 20
148.41476006670902
 11
210.35129751869258
 21
147.897121976504
  0
LINE
  8
_1-1_
  6
CONTINUOUS
 62
    4
 10
204.03314917127074
 20
148.41476006670902
 11
204.03314917127074
 21
158.41476006670902
  0
LINE
  8
_1-1_
  6
CONTINUOUS
 62
    4
 10
212.28314917127074
 20
148.41476006670902
 11
212.28314917127074
 21
158.41476006670902
  0
TEXT
  8
_1-1_
 62
    7
 10
204.78314917127074
 20
148.91476006670902
 40
3
 41
1
 50
0
  1
16.5
  0
LINE
  8
_1-1_
  6
CONTINUOUS
 62
    4
 10
212.28314917127074
 20
148.41476006670902
 11
217.28314917127074
 21
148.41476006670902
  0
LINE
  8
_1-1_
  6
CONTINUOUS
 62
    4
 10
212.28314917127074
 20
148.41476006670902
 11
214.21500082384887
 21
148.93239815691408
  0
LINE
  8
_1-1_
  6
CONTINUOUS
 62
    4
 10
212.28314917127074
 20
148.41476006670902
 11
214.21500082384887
 21
147.897121976504
  0
LINE
  8
_1-1_
  6
CONTINUOUS
 62
    4
 10
217.28314917127074
 20
148.41476006670902
 11
215.35129751869258
 21
148.93239815691408
  0
LINE
  8
_1-1_
  6
CONTINUOUS
 62
    4
 10
217.28314917127074
 20
148.41476006670902
 11
215.35129751869258
 21
147.897121976504
  0
LINE
  8
_1-1_
  6
CONTINUOUS
 62
    4
 10
217.28314917127074
 20
148.41476006670902
 11
217.28314917127074
 21
158.41476006670902
  0
TEXT
  8
_1-1_
 62
    7
 10
213.15814917127074
 20
148.91476006670902
 40
3
 41
1
 50
0
  1
10
  0
LINE
  8
_1-1_
  6
CONTINUOUS
 62
    4
 10
217.28314917127074
 20
148.41476006670902
 11
222.28314917127074
 21
148.41476006670902
  0
LINE
  8
_1-1_
  6
CONTINUOUS
 62
    4
 10
217.28314917127074
 20
148.41476006670902
 11
219.21500082384887
 21
148.93239815691408
  0
LINE
  8
_1-1_
  6
CONTINUOUS
 62
    4
 10
217.28314917127074
 20
148.41476006670902
 11
219.21500082384887
 21
147.897121976504
  0
LINE
  8
_1-1_
  6
CONTINUOUS
 62
    4
 10
222.28314917127074
 20
148.41476006670902
 11
220.35129751869258
 21
148.93239815691408
  0
LINE
  8
_1-1_
  6
CONTINUOUS
 62
    4
 10
222.28314917127074
 20
148.41476006670902
 11
220.35129751869258
 21
147.897121976504
  0
LINE
  8
_1-1_
  6
CONTINUOUS
 62
    4
 10
222.28314917127074
 20
148.41476006670902
 11
222.28314917127074
 21
158.41476006670902
  0
TEXT
  8
_1-1_
 62
    7
 10
218.15814917127074
 20
148.91476006670902
 40
3
 41
1
 50
0
  1
10
  0
LINE
  8
_1-4_
  6
CONTINUOUS
 62
    6
 10
189.53314917127074
 20
163.35082872928177
 11
189.53314917127074
 21
161.00082872928178
  0
LINE
  8
_1-4_
  6
CONTINUOUS
 62
    6
 10
191.53314917127074
 20
163.35082872928177
 11
191.53314917127074
 21
161.00082872928178
  0
ARC
  8
_1-4_
  6
CONTINUOUS
 62
    6
 10
190.53314917127074
 20
158.40082872928176
 40
1.05
 50
0
 51
180
  0
ARC
  8
_1-4_
  6
CONTINUOUS
 62
    6
 10
189.1331491712707
 20
156.80082872928176
 40
0.35
 50
178.97719497626443
 51
0
  0
ARC
  8
_1-4_
  6
CONTINUOUS
 62
    6
 10
191.93314917127071
 20
156.80082872928176
 40
0.35
 50
180
 51
0
  0
LINE
  8
_1-4_
  6
CONTINUOUS
 62
    6
 10
188.78314917127074
 20
161.00082872928178
 11
188.78314917127074
 21
156.80707635779257
  0
LINE
  8
_1-4_
  6
CONTINUOUS
 62
    6
 10
189.48314917127072
 20
158.40082872928176
 11
189.48314917127072
 21
156.80082872928176
  0
LINE
  8
_1-4_
  6
CONTINUOUS
 62
    6
 10
191.58314917127072
 20
158.40082872928176
 11
191.58314917127072
 21
156.80082872928176
  0
LINE
  8
_1-4_
  6
CONTINUOUS
 62
    6
 10
192.28314917127074
 20
161.00082872928178
 11
192.28314917127074
 21
156.80082872928176
  0
LINE
  8
_1-4_
  6
CONTINUOUS
 62
    6
 10
188.78314917127074
 20
161.00082872928178
 11
192.28314917127074
 21
161.00082872928178
  0
LINE
  8
_1-4_
  6
CONTINUOUS
 62
    6
 10
183.03314917127074
 20
163.35082872928177
 11
183.03314917127074
 21
161.00082872928178
  0
LINE
  8
_1-4_
  6
CONTINUOUS
 62
    6
 10
185.03314917127074
 20
163.35082872928177
 11
185.03314917127074
 21
161.00082872928178
  0
ARC
  8
_1-4_
  6
CONTINUOUS
 62
    6
 10
184.03314917127074
 20
158.40082872928176
 40
1.05
 50
0
 51
180
  0
ARC
  8
_1-4_
  6
CONTINUOUS
 62
    6
 10
182.6331491712707
 20
156.80082872928176
 40
0.35
 50
178.97719497626443
 51
0
  0
ARC
  8
_1-4_
  6
CONTINUOUS
 62
    6
 10
185.43314917127071
 20
156.80082872928176
 40
0.35
 50
180
 51
0
  0
LINE
  8
_1-4_
  6
CONTINUOUS
 62
    6
 10
182.28314917127074
 20
161.00082872928178
 11
182.28314917127074
 21
156.80707635779257
  0
LINE
  8
_1-4_
  6
CONTINUOUS
 62
    6
 10
182.98314917127072
 20
158.40082872928176
 11
182.98314917127072
 21
156.80082872928176
  0
LINE
  8
_1-4_
  6
CONTINUOUS
 62
    6
 10
185.08314917127072
 20
158.40082872928176
 11
185.08314917127072
 21
156.80082872928176
  0
LINE
  8
_1-4_
  6
CONTINUOUS
 62
    6
 10
185.78314917127074
 20
161.00082872928178
 11
185.78314917127074
 21
156.80082872928176
  0
LINE
  8
_1-4_
  6
CONTINUOUS
 62
    6
 10
182.28314917127074
 20
161.00082872928178
 11
185.78314917127074
 21
161.00082872928178
  0
LINE
  8
_1-4_
  6
CONTINUOUS
 62
    6
 10
175.78314917127074
 20
161.00082872928178
 11
179.28314917127074
 21
161.00082872928178
  0
LINE
  8
_1-4_
  6
CONTINUOUS
 62
    6
 10
176.53314917127074
 20
163.35082872928177
 11
176.53314917127074
 21
161.00082872928178
  0
LINE
  8
_1-4_
  6
CONTINUOUS
 62
    6
 10
178.53314917127074
 20
163.35082872928177
 11
178.53314917127074
 21
161.00082872928178
  0
ARC
  8
_1-4_
  6
CONTINUOUS
 62
    6
 10
177.53314917127074
 20
158.40082872928176
 40
1.05
 50
0
 51
180
  0
ARC
  8
_1-4_
  6
CONTINUOUS
 62
    6
 10
176.1331491712707
 20
156.80082872928176
 40
0.35
 50
178.97719497626443
 51
0
  0
ARC
  8
_1-4_
  6
CONTINUOUS
 62
    6
 10
178.93314917127071
 20
156.80082872928176
 40
0.35
 50
180
 51
0
  0
LINE
  8
_1-4_
  6
CONTINUOUS
 62
    6
 10
175.78314917127074
 20
161.00082872928178
 11
175.78314917127074
 21
156.80707635779257
  0
LINE
  8
_1-4_
  6
CONTINUOUS
 62
    6
 10
176.48314917127072
 20
158.40082872928176
 11
176.48314917127072
 21
156.80082872928176
  0
LINE
  8
_1-4_
  6
CONTINUOUS
 62
    6
 10
178.58314917127072
 20
158.40082872928176
 11
178.58314917127072
 21
156.80082872928176
  0
LINE
  8
_1-4_
  6
CONTINUOUS
 62
    6
 10
179.28314917127074
 20
161.00082872928178
 11
179.28314917127074
 21
156.80082872928176
  0
LINE
  8
_1-1_
  6
CONTINUOUS
 62
    4
 10
174.03314917127074
 20
148.41476006670902
 11
177.53314917127074
 21
148.41476006670902
  0
LINE
  8
_1-1_
  6
CONTINUOUS
 62
    4
 10
174.03314917127074
 20
148.41476006670902
 11
175.96500082384887
 21
148.93239815691408
  0
LINE
  8
_1-1_
  6
CONTINUOUS
 62
    4
 10
174.03314917127074
 20
148.41476006670902
 11
175.96500082384887
 21
147.897121976504
  0
LINE
  8
_1-1_
  6
CONTINUOUS
 62
    4
 10
177.53314917127074
 20
148.41476006670902
 11
175.60129751869258
 21
148.93239815691408
  0
LINE
  8
_1-1_
  6
CONTINUOUS
 62
    4
 10
177.53314917127074
 20
148.41476006670902
 11
175.60129751869258
 21
147.897121976504
  0
LINE
  8
_1-1_
  6
CONTINUOUS
 62
    4
 10
174.03314917127074
 20
148.41476006670902
 11
174.03314917127074
 21
158.41476006670902
  0
LINE
  8
_1-1_
  6
CONTINUOUS
 62
    4
 10
177.53314917127074
 20
148.41476006670902
 11
177.53314917127074
 21
158.41476006670902
  0
TEXT
  8
_1-1_
 62
    7
 10
175.03314917127074
 20
148.91476006670902
 40
3
 41
1
 50
0
  1
7
  0
LINE
  8
_1-1_
  6
CONTINUOUS
 62
    4
 10
177.53314917127074
 20
148.41476006670902
 11
184.03314917127074
 21
148.41476006670902
  0
LINE
  8
_1-1_
  6
CONTINUOUS
 62
    4
 10
177.53314917127074
 20
148.41476006670902
 11
179.46500082384887
 21
148.93239815691408
  0
LINE
  8
_1-1_
  6
CONTINUOUS
 62
    4
 10
177.53314917127074
 20
148.41476006670902
 11
179.46500082384887
 21
147.897121976504
  0
LINE
  8
_1-1_
  6
CONTINUOUS
 62
    4
 10
184.03314917127074
 20
148.41476006670902
 11
182.10129751869258
 21
148.93239815691408
  0
LINE
  8
_1-1_
  6
CONTINUOUS
 62
    4
 10
184.03314917127074
 20
148.41476006670902
 11
182.10129751869258
 21
147.897121976504
  0
LINE
  8
_1-1_
  6
CONTINUOUS
 62
    4
 10
184.03314917127074
 20
148.41476006670902
 11
184.03314917127074
 21
158.41476006670902
  0
TEXT
  8
_1-1_
 62
    7
 10
179.15814917127074
 20
148.91476006670902
 40
3
 41
1
 50
0
  1
13
  0
LINE
  8
_1-1_
  6
CONTINUOUS
 62
    4
 10
184.03314917127074
 20
148.41476006670902
 11
190.53314917127074
 21
148.41476006670902
  0
LINE
  8
_1-1_
  6
CONTINUOUS
 62
    4
 10
184.03314917127074
 20
148.41476006670902
 11
185.96500082384887
 21
148.93239815691408
  0
LINE
  8
_1-1_
  6
CONTINUOUS
 62
    4
 10
184.03314917127074
 20
148.41476006670902
 11
185.96500082384887
 21
147.897121976504
  0
LINE
  8
_1-1_
  6
CONTINUOUS
 62
    4
 10
190.53314917127074
 20
148.41476006670902
 11
188.60129751869258
 21
148.93239815691408
  0
LINE
  8
_1-1_
  6
CONTINUOUS
 62
    4
 10
190.53314917127074
 20
148.41476006670902
 11
188.60129751869258
 21
147.897121976504
  0
LINE
  8
_1-1_
  6
CONTINUOUS
 62
    4
 10
190.53314917127074
 20
148.41476006670902
 11
190.53314917127074
 21
158.41476006670902
  0
TEXT
  8
_1-1_
 62
    7
 10
185.65814917127074
 20
148.91476006670902
 40
3
 41
1
 50
0
  1
13
  0
TEXT
  8
_0-1_
 62
    7
 10
183.54696132596686
 20
14.842541436464103
 40
4
 41
1
 50
0
  1
SQ23150 3F□
  0
TEXT
  8
_1-1_
 62
    4
 10
147.85585133098945
 20
176.08463083877447
 40
2.5
 41
1
 50
0
  1
SQ23150 3FR
  0
TEXT
  8
_1-1_
 62
    4
 10
178.17980914113511
 20
176.2579105976896
 40
2.5
 41
1
 50
0
  1
SQ23150 3FC
  0
TEXT
  8
_1-1_
 62
    4
 10
208.15720743345054
 20
176.2579105976896
 40
2.5
 41
1
 50
0
  1
SQ23150 3FL
  0
LINE
  8
_1-3_ADD_LINE
  6
CENTER1
 62
    7
 10
156.6544123882145
 20
105.95082872928177
 11
154.99723756906076
 21
105.95082872928177
  0
LINE
  8
_1-3_ADD_LINE
  6
CENTER1
 62
    7
 10
155.78314917127074
 20
106.67561331185138
 11
155.78314917127074
 21
105.19715342417503
  0
LINE
  8
_1-1_
  6
CONTINUOUS
 62
    4
 10
163.43101248435639
 20
105.95082872928177
 11
162.91337439415136
 21
107.8826803818599
  0
LINE
  8
_1-1_
  6
CONTINUOUS
 62
    4
 10
163.43101248435639
 20
105.95082872928177
 11
163.94865057456144
 21
107.8826803818599
  0
LINE
  8
_1-1_
  6
CONTINUOUS
 62
    4
 10
158.53314917127074
 20
105.95082872928177
 11
163.43101248435639
 21
105.95082872928177
  0
TEXT
  8
_1-1_
 62
    7
 10
162.93101248435639
 20
112.48017667903355
 40
3
 41
1
 50
90
  1
4
  0
TEXT
  8
_1-1_
 62
    7
 10
234.53314917127074
 20
129.97582872928177
 40
3
 41
1
 50
90
  1
27
  0
TEXT
  8
_1-1_
 62
    7
 10
211.65814917127074
 20
114.35082872928177
 40
3
 41
1
 50
0
  1
40
  0
TEXT
  8
_1-1_
 62
    7
 10
192.65814917127071
 20
91.850828729281773
 40
3
 41
1
 50
0
  1
21
  0
LINE
  8
_1-4_
  6
CONTINUOUS
 62
    6
 10
223.28314917127074
 20
137.60082872928177
 11
221.28314917127074
 21
137.60082872928177
  0
LINE
  8
_1-4_
  6
CONTINUOUS
 62
    6
 10
220.53314917127074
 20
139.10082872928177
 11
221.28314917127074
 21
139.10082872928177
  0
LINE
  8
_1-4_
  6
CONTINUOUS
 62
    6
 10
223.28314917127074
 20
139.10082872928177
 11
224.03314917127074
 21
139.10082872928177
  0
LINE
  8
_1-4_
  6
CONTINUOUS
 62
    6
 10
220.53314917127074
 20
138.85082872928177
 11
221.28314917127074
 21
138.85082872928177
  0
LINE
  8
_1-4_
  6
CONTINUOUS
 62
    6
 10
223.28314917127074
 20
138.85082872928177
 11
224.03314917127074
 21
138.85082872928177
  0
LINE
  8
_1-4_
  6
CONTINUOUS
 62
    6
 10
220.53314917127074
 20
138.10082872928177
 11
224.03314917127074
 21
138.10082872928177
  0
LINE
  8
_1-4_
  6
CONTINUOUS
 62
    6
 10
220.53314917127074
 20
139.10082872928177
 11
220.53314917127074
 21
138.10082872928177
  0
LINE
  8
_1-4_
  6
CONTINUOUS
 62
    6
 10
221.28314917127074
 20
138.35082872928177
 11
223.28314917127074
 21
138.35082872928177
  0
LINE
  8
_1-4_
  6
CONTINUOUS
 62
    6
 10
224.03314917127074
 20
139.10082872928177
 11
224.03314917127074
 21
138.10082872928177
  0
LINE
  8
_1-4_
  6
CONTINUOUS
 62
    6
 10
221.28314917127074
 20
138.35082872928177
 11
221.28314917127074
 21
139.10082872928177
  0
LINE
  8
_1-4_
  6
CONTINUOUS
 62
    6
 10
223.28314917127074
 20
138.35082872928177
 11
223.28314917127074
 21
139.10082872928177
  0
LINE
  8
_1-4_
  6
CONTINUOUS
 62
    6
 10
221.28314917127074
 20
138.60082872928177
 11
223.28314917127074
 21
138.60082872928177
  0
LINE
  8
_1-4_
  6
CONTINUOUS
 62
    6
 10
223.28314917127074
 20
137.60082872928177
 11
223.28314917127074
 21
138.10082872928177
  0
LINE
  8
_1-4_
  6
CONTINUOUS
 62
    6
 10
221.28314917127074
 20
137.60082872928177
 11
221.28314917127074
 21
138.10082872928177
  0
LINE
  8
_1-4_
  6
CONTINUOUS
 62
    6
 10
218.28314917127074
 20
137.60082872928177
 11
216.28314917127074
 21
137.60082872928177
  0
LINE
  8
_1-4_
  6
CONTINUOUS
 62
    6
 10
215.53314917127074
 20
139.10082872928177
 11
216.28314917127074
 21
139.10082872928177
  0
LINE
  8
_1-4_
  6
CONTINUOUS
 62
    6
 10
218.28314917127074
 20
139.10082872928177
 11
219.03314917127074
 21
139.10082872928177
  0
LINE
  8
_1-4_
  6
CONTINUOUS
 62
    6
 10
215.53314917127074
 20
138.85082872928177
 11
216.28314917127074
 21
138.85082872928177
  0
LINE
  8
_1-4_
  6
CONTINUOUS
 62
    6
 10
218.28314917127074
 20
138.85082872928177
 11
219.03314917127074
 21
138.85082872928177
  0
LINE
  8
_1-4_
  6
CONTINUOUS
 62
    6
 10
215.53314917127074
 20
138.10082872928177
 11
219.03314917127074
 21
138.10082872928177
  0
LINE
  8
_1-4_
  6
CONTINUOUS
 62
    6
 10
215.53314917127074
 20
139.10082872928177
 11
215.53314917127074
 21
138.10082872928177
  0
LINE
  8
_1-4_
  6
CONTINUOUS
 62
    6
 10
216.28314917127074
 20
138.35082872928177
 11
218.28314917127074
 21
138.35082872928177
  0
LINE
  8
_1-4_
  6
CONTINUOUS
 62
    6
 10
219.03314917127074
 20
139.10082872928177
 11
219.03314917127074
 21
138.10082872928177
  0
LINE
  8
_1-4_
  6
CONTINUOUS
 62
    6
 10
216.28314917127074
 20
138.35082872928177
 11
216.28314917127074
 21
139.10082872928177
  0
LINE
  8
_1-4_
  6
CONTINUOUS
 62
    6
 10
218.28314917127074
 20
138.35082872928177
 11
218.28314917127074
 21
139.10082872928177
  0
LINE
  8
_1-4_
  6
CONTINUOUS
 62
    6
 10
216.28314917127074
 20
138.60082872928177
 11
218.28314917127074
 21
138.60082872928177
  0
LINE
  8
_1-4_
  6
CONTINUOUS
 62
    6
 10
218.28314917127074
 20
137.60082872928177
 11
218.28314917127074
 21
138.10082872928177
  0
LINE
  8
_1-4_
  6
CONTINUOUS
 62
    6
 10
216.28314917127074
 20
137.60082872928177
 11
216.28314917127074
 21
138.10082872928177
  0
LINE
  8
_1-4_
  6
CONTINUOUS
 62
    6
 10
213.28314917127074
 20
137.60082872928177
 11
211.28314917127074
 21
137.60082872928177
  0
LINE
  8
_1-4_
  6
CONTINUOUS
 62
    6
 10
210.53314917127074
 20
139.10082872928177
 11
211.28314917127074
 21
139.10082872928177
  0
LINE
  8
_1-4_
  6
CONTINUOUS
 62
    6
 10
213.28314917127074
 20
139.10082872928177
 11
214.03314917127074
 21
139.10082872928177
  0
LINE
  8
_1-4_
  6
CONTINUOUS
 62
    6
 10
210.53314917127074
 20
138.85082872928177
 11
211.28314917127074
 21
138.85082872928177
  0
LINE
  8
_1-4_
  6
CONTINUOUS
 62
    6
 10
213.28314917127074
 20
138.85082872928177
 11
214.03314917127074
 21
138.85082872928177
  0
LINE
  8
_1-4_
  6
CONTINUOUS
 62
    6
 10
210.53314917127074
 20
138.10082872928177
 11
214.03314917127074
 21
138.10082872928177
  0
LINE
  8
_1-4_
  6
CONTINUOUS
 62
    6
 10
210.53314917127074
 20
139.10082872928177
 11
210.53314917127074
 21
138.10082872928177
  0
LINE
  8
_1-4_
  6
CONTINUOUS
 62
    6
 10
211.28314917127074
 20
138.35082872928177
 11
213.28314917127074
 21
138.35082872928177
  0
LINE
  8
_1-4_
  6
CONTINUOUS
 62
    6
 10
214.03314917127074
 20
139.10082872928177
 11
214.03314917127074
 21
138.10082872928177
  0
LINE
  8
_1-4_
  6
CONTINUOUS
 62
    6
 10
211.28314917127074
 20
138.35082872928177
 11
211.28314917127074
 21
139.10082872928177
  0
LINE
  8
_1-4_
  6
CONTINUOUS
 62
    6
 10
213.28314917127074
 20
138.35082872928177
 11
213.28314917127074
 21
139.10082872928177
  0
LINE
  8
_1-4_
  6
CONTINUOUS
 62
    6
 10
211.28314917127074
 20
138.60082872928177
 11
213.28314917127074
 21
138.60082872928177
  0
LINE
  8
_1-4_
  6
CONTINUOUS
 62
    6
 10
213.28314917127074
 20
137.60082872928177
 11
213.28314917127074
 21
138.10082872928177
  0
LINE
  8
_1-4_
  6
CONTINUOUS
 62
    6
 10
211.28314917127074
 20
137.60082872928177
 11
211.28314917127074
 21
138.10082872928177
  0
LINE
  8
_1-2_
  6
CONTINUOUS
 62
    6
 10
210.53314917127074
 20
138.35082872928177
 11
204.03314917127074
 21
138.35082872928177
  0
LINE
  8
_1-2_
  6
CONTINUOUS
 62
    6
 10
215.53314917127074
 20
138.35082872928177
 11
214.03314917127074
 21
138.35082872928177
  0
LINE
  8
_1-2_
  6
CONTINUOUS
 62
    6
 10
220.53314917127074
 20
138.35082872928177
 11
219.03314917127074
 21
138.35082872928177
  0
LINE
  8
_1-2_
  6
CONTINUOUS
 62
    6
 10
223.53314917127074
 20
137.85082872928177
 11
223.28314917127074
 21
137.85082872928177
  0
LINE
  8
_1-2_
  6
CONTINUOUS
 62
    6
 10
221.28314917127074
 20
137.85082872928177
 11
218.28314917127074
 21
137.85082872928177
  0
LINE
  8
_1-2_
  6
CONTINUOUS
 62
    6
 10
216.28314917127074
 20
137.85082872928177
 11
213.28314917127074
 21
137.85082872928177
  0
LINE
  8
_1-2_
  6
CONTINUOUS
 62
    6
 10
211.28314917127074
 20
137.85082872928177
 11
204.53314917127074
 21
137.85082872928177
  0
LINE
  8
_1-4_
  6
CONTINUOUS
 62
    6
 10
189.53314917127074
 20
137.60082872928177
 11
191.53314917127074
 21
137.60082872928177
  0
LINE
  8
_1-4_
  6
CONTINUOUS
 62
    6
 10
192.28314917127074
 20
139.10082872928177
 11
191.53314917127074
 21
139.10082872928177
  0
LINE
  8
_1-4_
  6
CONTINUOUS
 62
    6
 10
189.53314917127074
 20
139.10082872928177
 11
188.78314917127074
 21
139.10082872928177
  0
LINE
  8
_1-4_
  6
CONTINUOUS
 62
    6
 10
192.28314917127074
 20
138.85082872928177
 11
191.53314917127074
 21
138.85082872928177
  0
LINE
  8
_1-4_
  6
CONTINUOUS
 62
    6
 10
189.53314917127074
 20
138.85082872928177
 11
188.78314917127074
 21
138.85082872928177
  0
LINE
  8
_1-4_
  6
CONTINUOUS
 62
    6
 10
192.28314917127074
 20
138.10082872928177
 11
188.78314917127074
 21
138.10082872928177
  0
LINE
  8
_1-4_
  6
CONTINUOUS
 62
    6
 10
192.28314917127074
 20
139.10082872928177
 11
192.28314917127074
 21
138.10082872928177
  0
LINE
  8
_1-4_
  6
CONTINUOUS
 62
    6
 10
191.53314917127074
 20
138.35082872928177
 11
189.53314917127074
 21
138.35082872928177
  0
LINE
  8
_1-4_
  6
CONTINUOUS
 62
    6
 10
188.78314917127074
 20
139.10082872928177
 11
188.78314917127074
 21
138.10082872928177
  0
LINE
  8
_1-4_
  6
CONTINUOUS
 62
    6
 10
191.53314917127074
 20
138.35082872928177
 11
191.53314917127074
 21
139.10082872928177
  0
LINE
  8
_1-4_
  6
CONTINUOUS
 62
    6
 10
189.53314917127074
 20
138.35082872928177
 11
189.53314917127074
 21
139.10082872928177
  0
LINE
  8
_1-4_
  6
CONTINUOUS
 62
    6
 10
191.53314917127074
 20
138.60082872928177
 11
189.53314917127074
 21
138.60082872928177
  0
LINE
  8
_1-4_
  6
CONTINUOUS
 62
    6
 10
189.53314917127074
 20
137.60082872928177
 11
189.53314917127074
 21
138.10082872928177
  0
LINE
  8
_1-4_
  6
CONTINUOUS
 62
    6
 10
191.53314917127074
 20
137.60082872928177
 11
191.53314917127074
 21
138.10082872928177
  0
LINE
  8
_1-2_
  6
CONTINUOUS
 62
    6
 10
192.28314917127074
 20
138.35082872928177
 11
194.03314917127074
 21
138.35082872928177
  0
LINE
  8
_1-2_
  6
CONTINUOUS
 62
    6
 10
191.53314917127074
 20
137.85082872928177
 11
193.53314917127074
 21
137.85082872928177
  0
LINE
  8
_1-4_
  6
CONTINUOUS
 62
    6
 10
183.03314917127074
 20
137.60082872928177
 11
185.03314917127074
 21
137.60082872928177
  0
LINE
  8
_1-4_
  6
CONTINUOUS
 62
    6
 10
185.78314917127074
 20
139.10082872928177
 11
185.03314917127074
 21
139.10082872928177
  0
LINE
  8
_1-4_
  6
CONTINUOUS
 62
    6
 10
183.03314917127074
 20
139.10082872928177
 11
182.28314917127074
 21
139.10082872928177
  0
LINE
  8
_1-4_
  6
CONTINUOUS
 62
    6
 10
185.78314917127074
 20
138.85082872928177
 11
185.03314917127074
 21
138.85082872928177
  0
LINE
  8
_1-4_
  6
CONTINUOUS
 62
    6
 10
183.03314917127074
 20
138.85082872928177
 11
182.28314917127074
 21
138.85082872928177
  0
LINE
  8
_1-4_
  6
CONTINUOUS
 62
    6
 10
185.78314917127074
 20
138.10082872928177
 11
182.28314917127074
 21
138.10082872928177
  0
LINE
  8
_1-4_
  6
CONTINUOUS
 62
    6
 10
185.78314917127074
 20
139.10082872928177
 11
185.78314917127074
 21
138.10082872928177
  0
LINE
  8
_1-4_
  6
CONTINUOUS
 62
    6
 10
185.03314917127074
 20
138.35082872928177
 11
183.03314917127074
 21
138.35082872928177
  0
LINE
  8
_1-4_
  6
CONTINUOUS
 62
    6
 10
182.28314917127074
 20
139.10082872928177
 11
182.28314917127074
 21
138.10082872928177
  0
LINE
  8
_1-4_
  6
CONTINUOUS
 62
    6
 10
185.03314917127074
 20
138.35082872928177
 11
185.03314917127074
 21
139.10082872928177
  0
LINE
  8
_1-4_
  6
CONTINUOUS
 62
    6
 10
183.03314917127074
 20
138.35082872928177
 11
183.03314917127074
 21
139.10082872928177
  0
LINE
  8
_1-4_
  6
CONTINUOUS
 62
    6
 10
185.03314917127074
 20
138.60082872928177
 11
183.03314917127074
 21
138.60082872928177
  0
LINE
  8
_1-4_
  6
CONTINUOUS
 62
    6
 10
183.03314917127074
 20
137.60082872928177
 11
183.03314917127074
 21
138.10082872928177
  0
LINE
  8
_1-4_
  6
CONTINUOUS
 62
    6
 10
185.03314917127074
 20
137.60082872928177
 11
185.03314917127074
 21
138.10082872928177
  0
LINE
  8
_1-2_
  6
CONTINUOUS
 62
    6
 10
185.78314917127074
 20
138.35082872928177
 11
188.78314917127074
 21
138.35082872928177
  0
LINE
  8
_1-2_
  6
CONTINUOUS
 62
    6
 10
185.03314917127074
 20
137.85082872928177
 11
189.53314917127074
 21
137.85082872928177
  0
LINE
  8
_1-4_
  6
CONTINUOUS
 62
    6
 10
176.53314917127074
 20
137.60082872928177
 11
178.53314917127074
 21
137.60082872928177
  0
LINE
  8
_1-4_
  6
CONTINUOUS
 62
    6
 10
179.28314917127074
 20
139.10082872928177
 11
178.53314917127074
 21
139.10082872928177
  0
LINE
  8
_1-4_
  6
CONTINUOUS
 62
    6
 10
176.53314917127074
 20
139.10082872928177
 11
175.78314917127074
 21
139.10082872928177
  0
LINE
  8
_1-4_
  6
CONTINUOUS
 62
    6
 10
179.28314917127074
 20
138.85082872928177
 11
178.53314917127074
 21
138.85082872928177
  0
LINE
  8
_1-4_
  6
CONTINUOUS
 62
    6
 10
176.53314917127074
 20
138.85082872928177
 11
175.78314917127074
 21
138.85082872928177
  0
LINE
  8
_1-4_
  6
CONTINUOUS
 62
    6
 10
179.28314917127074
 20
138.10082872928177
 11
175.78314917127074
 21
138.10082872928177
  0
LINE
  8
_1-4_
  6
CONTINUOUS
 62
    6
 10
179.28314917127074
 20
139.10082872928177
 11
179.28314917127074
 21
138.10082872928177
  0
LINE
  8
_1-4_
  6
CONTINUOUS
 62
    6
 10
178.53314917127074
 20
138.35082872928177
 11
176.53314917127074
 21
138.35082872928177
  0
LINE
  8
_1-4_
  6
CONTINUOUS
 62
    6
 10
175.78314917127074
 20
139.10082872928177
 11
175.78314917127074
 21
138.10082872928177
  0
LINE
  8
_1-4_
  6
CONTINUOUS
 62
    6
 10
178.53314917127074
 20
138.35082872928177
 11
178.53314917127074
 21
139.10082872928177
  0
LINE
  8
_1-4_
  6
CONTINUOUS
 62
    6
 10
176.53314917127074
 20
138.35082872928177
 11
176.53314917127074
 21
139.10082872928177
  0
LINE
  8
_1-4_
  6
CONTINUOUS
 62
    6
 10
178.53314917127074
 20
138.60082872928177
 11
176.53314917127074
 21
138.60082872928177
  0
LINE
  8
_1-4_
  6
CONTINUOUS
 62
    6
 10
176.53314917127074
 20
137.60082872928177
 11
176.53314917127074
 21
138.10082872928177
  0
LINE
  8
_1-4_
  6
CONTINUOUS
 62
    6
 10
178.53314917127074
 20
137.60082872928177
 11
178.53314917127074
 21
138.10082872928177
  0
LINE
  8
_1-2_
  6
CONTINUOUS
 62
    6
 10
179.28314917127074
 20
138.35082872928177
 11
182.28314917127074
 21
138.35082872928177
  0
LINE
  8
_1-2_
  6
CONTINUOUS
 62
    6
 10
174.03314917127074
 20
138.35082872928177
 11
175.78314917127074
 21
138.35082872928177
  0
LINE
  8
_1-2_
  6
CONTINUOUS
 62
    6
 10
178.53314917127074
 20
137.85082872928177
 11
183.03314917127074
 21
137.85082872928177
  0
LINE
  8
_1-2_
  6
CONTINUOUS
 62
    6
 10
174.53314917127074
 20
137.85082872928177
 11
176.53314917127074
 21
137.85082872928177
  0
ENDSEC
  0
EOF
