  0
SECTION
  2
HEADER
  9
$ACADVER
  1
AC1009
  9
$INSBASE
 10
0
 20
0
 30
0
  9
$EXTMIN
 10
0
 20
0
  9
$EXTMAX
 10
420
 20
297
  9
$LIMMIN
 10
0
 20
0
  9
$LIMMAX
 10
420
 20
297
  9
$LTSCALE
 40
1
  0
ENDSEC
  0
SECTION
  2
TABLES
  0
TABLE
  2
LTYPE
 70
     9
  0
LTYPE
  2
CONTINUOUS
 70
    64
  3
実線
 72
    65
 73
     0
 40
0.0
  0
LTYPE
  2
DASHED1
 70
    64
  3
--  --  --  --  --  --  --  --  
 72
    65
 73
     2
 40
2.5
 49
1.25
 49
-1.25
  0
LTYPE
  2
DASHED2
 70
    64
  3
----    ----    ----    ----    
 72
    65
 73
     2
 40
5.0
 49
2.5
 49
-2.5
  0
LTYPE
  2
DASHED3
 70
    64
  3
------  ------  ------  ------  
 72
    65
 73
     2
 40
5.0
 49
3.75
 49
-1.25
  0
LTYPE
  2
CENTER1
 70
    64
  3
----- - ----- - ----- - ----- - 
 72
    65
 73
     4
 40
10.0
 49
6.25
 49
-1.25
 49
1.25
 49
-1.25
  0
LTYPE
  2
CENTER2
 70
    64
  3
----------  --  ----------  --  
 72
    65
 73
     4
 40
20.0
 49
12.5
 49
-2.5
 49
2.5
 49
-2.5
  0
LTYPE
  2
PHANTOM1
 70
    64
  3
--- - - --- - - --- - - --- - - 
 72
    65
 73
     6
 40
10.0
 49
3.25
 49
-1.25
 49
1.25
 49
-1.25
 49
1.25
 49
-1.25
  0
LTYPE
  2
PHANTOM2
 70
    64
  3
--------  -  -  --------  -  -  
 72
    65
 73
     6
 40
20.0
 49
10.0
 49
-2.5
 49
1.25
 49
-2.5
 49
1.25
 49
-2.5
  0
LTYPE
  2
DOT
 70
    64
  3
-   -   -   -   -   -   -   -   
 72
    65
 73
     2
 40
2.5
 49
0.625
 49
-1.875
  0
LTYPE
  2
DUMMY
 70
    64
  3
ダミー
 72
    65
 73
     0
 40
0.0
  0
LTYPE
  2
RAND1
 70
    64
  3
ランダム線1
 72
    65
 73
     4
 40
10.0
 49
1.0
 49
-2.0
 49
3.0
 49
-4.0
  0
LTYPE
  2
RAND2
 70
    64
  3
ランダム線2
 72
    65
 73
     4
 40
14.0
 49
2.0
 49
-3.0
 49
4.0
 49
-5.0
  0
LTYPE
  2
RAND3
 70
    64
  3
ランダム線3
 72
    65
 73
     4
 40
18.0
 49
3.0
 49
-4.0
 49
5.0
 49
-6.0
  0
LTYPE
  2
RAND4
 70
    64
  3
ランダム線4
 72
    65
 73
     4
 40
22.0
 49
4.0
 49
-5.0
 49
6.0
 49
-7.0
  0
LTYPE
  2
RAND5
 70
    64
  3
ランダム線5
 72
    65
 73
     4
 40
26.0
 49
5.0
 49
-6.0
 49
7.0
 49
-8.0
  0
LTYPE
  2
LONG1
 70
    64
  3
----------  --  ----------  --  
 72
    65
 73
     4
 40
40.0
 49
32.5
 49
-2.5
 49
2.5
 49
-2.5
  0
LTYPE
  2
LONG2
 70
    64
  3
--------  -  -  --------  -  -  
 72
    65
 73
     6
 40
40.0
 49
30.0
 49
-2.5
 49
1.25
 49
-2.5
 49
1.25
 49
-2.5
  0
LTYPE
  2
LONG3
 70
    64
  3
+++++++++++++++..+++++++++++++++
 72
    65
 73
     2
 40
40.0
 49
37.5
 49
-2.5
  0
LTYPE
  2
LONG4
 70
    64
  3
+++++++++++++++..+++++++++++++++
 72
    65
 73
     2
 40
80.0
 49
75.0
 49
-5.0
  0
LTYPE
  2
LONG5
 70
    64
  3
----------  --  ----------  --  
 72
    65
 73
     4
 40
60.0
 49
37.5
 49
-7.5
 49
7.5
 49
-7.5
  0
LTYPE
  2
dashed
 70
   64
  3
-------   -------------   ------
 72
   65
 73
    2
 40
7.5
 49
6
 49
-1.5
  0
LTYPE
  2
dashed_spaced
 70
   64
  3
----        --------        ----
 72
   65
 73
    2
 40
12
 49
6
 49
-6
  0
LTYPE
  2
long_dashed_dotted
 70
   64
  3
------------- --- --------------
 72
   65
 73
    4
 40
15.25
 49
12
 49
-1.5
 49
0.25
 49
-1.5
  0
LTYPE
  2
long_dashed_double-dotted
 70
   64
  3
----------- --- --- ------------
 72
   65
 73
    6
 40
17
 49
12
 49
-1.5
 49
0.25
 49
-1.5
 49
0.25
 49
-1.5
  0
LTYPE
  2
long_dashed_triplicate-dotted
 70
   64
  3
--------- --- --- --- ----------
 72
   65
 73
    8
 40
18.75
 49
12
 49
-1.5
 49
0.25
 49
-1.5
 49
0.25
 49
-1.5
 49
0.25
 49
-1.5
  0
LTYPE
  2
dotted
 70
   64
  3
   -       -       -       -    
 72
   65
 73
    2
 40
1.75
 49
0.25
 49
-1.5
  0
LTYPE
  2
chain
 70
   64
  3
-------------- -- --------------
 72
   65
 73
    4
 40
18.5
 49
12
 49
-1.5
 49
3.5
 49
-1.5
  0
LTYPE
  2
chain_double_dash
 70
   64
  3
------------ -- -- -------------
 72
   65
 73
    6
 40
23.5
 49
12
 49
-1.5
 49
3.5
 49
-1.5
 49
3.5
 49
-1.5
  0
LTYPE
  2
dashed_dotted
 70
   64
  3
-----------     -     ----------
 72
   65
 73
    4
 40
9.25
 49
6
 49
-1.5
 49
0.25
 49
-1.5
  0
LTYPE
  2
double-dashed_dotted
 70
   64
  3
------   -----------   -   -----
 72
   65
 73
    6
 40
16.75
 49
6
 49
-1.5
 49
6
 49
-1.5
 49
0.25
 49
-1.5
  0
LTYPE
  2
dashed_double-dotted
 70
   64
  3
---------    -    -    ---------
 72
   65
 73
    6
 40
11
 49
6
 49
-1.5
 49
0.25
 49
-1.5
 49
0.25
 49
-1.5
  0
LTYPE
  2
double-dashed_double-dotted
 70
   64
  3
-----   ---------   -   -   ----
 72
   65
 73
    8
 40
18.5
 49
6
 49
-1.5
 49
6
 49
-1.5
 49
0.25
 49
-1.5
 49
0.25
 49
-1.5
  0
LTYPE
  2
dashed_triplicate-dotted
 70
   64
  3
-------    -    -    -    ------
 72
   65
 73
    8
 40
12.75
 49
6
 49
-1.5
 49
0.25
 49
-1.5
 49
0.25
 49
-1.5
 49
0.25
 49
-1.5
  0
LTYPE
  2
double-dashed_triplicate-dotted
 70
   64
  3
-----  ---------  -  -  -  -----
 72
   65
 73
   10
 40
20.25
 49
6
 49
-1.5
 49
6
 49
-1.5
 49
0.25
 49
-1.5
 49
0.25
 49
-1.5
 49
0.25
 49
-1.5
  0
LTYPE
  2
undefined
 70
   64
  3
--------------------------------
 72
   65
 73
    0
 40
0
  0
ENDTAB
  0
TABLE
  2
STYLE
  5
3
100
AcDbSymbolTable
 70
     1
  0
STYLE
  5
10
100
AcDbSymbolTableRecord
100
AcDbTextStyleTableRecord
  2
STANDARD
 70
     0
 40
0.0
 41
1.0
 50
0.0
 71
     0
 42
0.2
  3
txt
  4
bigfont.shx
  0
STYLE
  5
26
100
AcDbSymbolTableRecord
100
AcDbTextStyleTableRecord
  2
TATEGAKI
 70
    68
 40
0.0
 41
1.0
 50
0.0
 71
     0
 42
1.0
  3
txt
  4
bigfont.shx
  0
ENDTAB
  0
TABLE
  2
LAYER
 70
    5
  0
LAYER
  2
_0-1_
 70
   64
 62
    7
  6
CONTINUOUS
  0
LAYER
  2
_1-1_
 70
   64
 62
    7
  6
CONTINUOUS
  0
LAYER
  2
_1-2_
 70
   64
 62
    7
  6
CONTINUOUS
  0
LAYER
  2
_1-3_ADD_LINE
 70
   64
 62
    7
  6
CONTINUOUS
  0
LAYER
  2
ADD_LINE
 70
   64
 62
    7
  6
CONTINUOUS
  0
ENDTAB
  0
ENDSEC
  0
SECTION
  2
BLOCKS
  0
ENDSEC
  0
SECTION
  2
ENTITIES
  0
LINE
  8
_1-2_
  6
CONTINUOUS
 62
    6
 10
175.8519062910168
 20
203.13891682359946
 11
182.74229726462312
 21
211.65493186786509
  0
LINE
  8
_0-1_
  6
CONTINUOUS
 62
    3
 10
109.91378294262526
 20
10.082039243805809
 11
109.59104797587588
 21
10.082039243805809
  0
LINE
  8
_0-1_
  6
CONTINUOUS
 62
    3
 10
109.59104797587588
 20
10.082039243805809
 11
109.59104797587588
 21
280.35561316697232
  0
LINE
  8
_0-1_
  6
CONTINUOUS
 62
    3
 10
289.74820746365236
 20
280.35561316697232
 11
289.74820746365236
 21
10.082039243805809
  0
LINE
  8
_0-1_
  6
CONTINUOUS
 62
    3
 10
109.59104797587588
 20
280.35561316697232
 11
289.74820746365236
 21
280.35561316697232
  0
LINE
  8
_0-1_
  6
CONTINUOUS
 62
    3
 10
289.74820746365236
 20
10.082039243805809
 11
109.59104797587588
 21
10.082039243805809
  0
LINE
  8
_0-1_
  6
CONTINUOUS
 62
    3
 10
289.74820746365236
 20
25.082039243805809
 11
109.59104797587588
 21
25.082039243805809
  0
LINE
  8
_0-1_
  6
CONTINUOUS
 62
    3
 10
169.59104797587588
 20
10.082039243805809
 11
169.59104797587588
 21
25.082039243805809
  0
LINE
  8
_0-1_
  6
CONTINUOUS
 62
    3
 10
229.59104797587588
 20
10.082039243805809
 11
229.59104797587588
 21
25.082039243805809
  0
TEXT
  8
_0-1_
 62
    7
 10
111.53633893959282
 20
21.577207655443985
 40
2
 41
1
 50
0
  1
ＴＩＴＬＥ
  0
TEXT
  8
_0-1_
 62
    7
 10
171.46168920362626
 20
21.325420469460653
 40
2
 41
1
 50
0
  1
ＭＯＤＥＬ
  0
TEXT
  8
_0-1_
 62
    7
 10
236.24586551082081
 20
15.198940813772481
 40
4
 41
1
 50
0
  1
日伸制御機工株式会社
  0
TEXT
  8
_0-1_
 62
    7
 10
119.50276243093923
 20
14.378453038674053
 40
4
 41
1
 50
0
  1
スパークケンチャー
  0
LINE
  8
_1-2_
  6
CONTINUOUS
 62
    6
 10
195.8519062910168
 20
203.13891682359946
 11
188.96151531750562
 21
211.65493186774751
  0
ARC
  8
_1-2_
  6
CONTINUOUS
 62
    6
 10
185.8519062910168
 20
209.13891682359946
 40
4
 50
38.976660018723877
 51
141.02333998127617
  0
LINE
  8
_1-1_
  6
CONTINUOUS
 62
    4
 10
175.99464122667001
 20
167.6240582621798
 11
206.70584162847814
 21
167.6240582621798
  0
LINE
  8
_1-1_
  6
CONTINUOUS
 62
    4
 10
171.31788172049443
 20
158.11439599745819
 11
175.99464122667001
 21
167.6240582621798
  0
LINE
  8
_1-1_
  6
CONTINUOUS
 62
    4
 10
171.31788172049443
 20
158.11439599745819
 11
171.70592277354945
 21
160.07639093658111
  0
LINE
  8
_1-1_
  6
CONTINUOUS
 62
    4
 10
171.31788172049443
 20
158.11439599745819
 11
172.63493259971278
 21
159.61951293030765
  0
TEXT
  8
_1-1_
 62
    7
 10
176.96651465710698
 20
172.67780010045203
 40
3
 41
1
 50
0
  1
耐熱ビニール電線(赤)
  0
LINE
  8
_1-3_ADD_LINE
  6
CENTER1
 62
    7
 10
185.8519062910168
 20
214.38549134086816
 11
185.8519062910168
 21
206.12994088667713
  0
LINE
  8
_1-1_
  6
CONTINUOUS
 62
    4
 10
195.8519062910168
 20
221.24033149171271
 11
175.8519062910168
 21
221.24033149171271
  0
LINE
  8
_1-1_
  6
CONTINUOUS
 62
    4
 10
195.8519062910168
 20
221.24033149171271
 11
193.92005463843867
 21
220.72269340150766
  0
LINE
  8
_1-1_
  6
CONTINUOUS
 62
    4
 10
195.8519062910168
 20
221.24033149171271
 11
193.92005463843867
 21
221.75796958191773
  0
LINE
  8
_1-1_
  6
CONTINUOUS
 62
    4
 10
175.8519062910168
 20
221.24033149171271
 11
177.78375794359494
 21
220.72269340150766
  0
LINE
  8
_1-1_
  6
CONTINUOUS
 62
    4
 10
175.8519062910168
 20
221.24033149171271
 11
177.78375794359494
 21
221.75796958191773
  0
TEXT
  8
_1-1_
 62
    7
 10
184.2269062910168
 20
221.74033149171271
 40
3
 41
1
 50
0
  1
20
  0
LINE
  8
_1-1_
  6
CONTINUOUS
 62
    4
 10
195.8519062910168
 20
221.24033149171271
 11
195.8519062910168
 21
204.33384012587027
  0
LINE
  8
_1-1_
  6
CONTINUOUS
 62
    4
 10
175.8519062910168
 20
221.24033149171271
 11
175.8519062910168
 21
204.33384012587027
  0
LINE
  8
_1-1_
  6
CONTINUOUS
 62
    4
 10
171.5590155700653
 20
221.24033149171271
 11
161.21948769462583
 21
221.24033149171271
  0
LINE
  8
_1-3_ADD_LINE
  6
CENTER1
 62
    7
 10
182.69537628015169
 20
208.63891682359946
 11
188.89027618255025
 21
208.63891682359946
  0
TEXT
  8
_1-1_
 62
    7
 10
162.39526349234538
 20
221.54476747574029
 40
3
 41
1
 50
0
  1
φ4.5
  0
CIRCLE
  8
_1-2_
  6
CONTINUOUS
 62
    6
 10
185.8519062910168
 20
208.63891682359946
 40
2.25
  0
LINE
  8
_1-1_
  6
CONTINUOUS
 62
    4
 10
184.19340660088866
 20
210.15940318586809
 11
182.37937629909385
 21
211.00159916316207
  0
LINE
  8
_1-1_
  6
CONTINUOUS
 62
    4
 10
184.19340660088866
 20
210.15940318586809
 11
183.04350826494658
 21
211.79578144806715
  0
LINE
  8
_1-1_
  6
CONTINUOUS
 62
    4
 10
184.19340660088864
 20
210.15940318586809
 11
171.5590155700653
 21
221.24033149171271
  0
LINE
  8
_1-2_
  6
CONTINUOUS
 62
    6
 10
161.8519062910168
 20
203.13891682359946
 11
161.8519062910168
 21
180.63891682359946
  0
LINE
  8
_1-2_
  6
CONTINUOUS
 62
    6
 10
161.8519062910168
 20
180.63891682359946
 11
209.8519062910168
 21
180.63891682359946
  0
LINE
  8
_1-2_
  6
CONTINUOUS
 62
    6
 10
209.8519062910168
 20
203.13891682359946
 11
209.8519062910168
 21
180.63891682359946
  0
LINE
  8
_1-2_
  6
CONTINUOUS
 62
    6
 10
161.8519062910168
 20
203.13891682359946
 11
209.8519062910168
 21
203.13891682359946
  0
LINE
  8
_1-1_
  6
CONTINUOUS
 62
    4
 10
220.8519062910168
 20
203.13891682359946
 11
220.33426820081178
 21
201.20706517102133
  0
LINE
  8
_1-1_
  6
CONTINUOUS
 62
    4
 10
220.8519062910168
 20
203.13891682359946
 11
221.36954438122186
 21
201.20706517102133
  0
LINE
  8
_1-1_
  6
CONTINUOUS
 62
    4
 10
220.8519062910168
 20
203.13891682359946
 11
210.8519062910168
 21
203.13891682359946
  0
LINE
  8
_1-1_
  6
CONTINUOUS
 62
    4
 10
220.8519062910168
 20
203.13891682359946
 11
220.8519062910168
 21
213.13891682359946
  0
LINE
  8
_1-1_
  6
CONTINUOUS
 62
    4
 10
220.8519062910168
 20
203.13891682359946
 11
220.33426820081175
 21
205.07076847617759
  0
LINE
  8
_1-1_
  6
CONTINUOUS
 62
    4
 10
220.8519062910168
 20
203.13891682359946
 11
221.36954438122186
 21
205.07076847617759
  0
LINE
  8
_1-1_
  6
CONTINUOUS
 62
    4
 10
220.8519062910168
 20
213.13891682359946
 11
220.33426820081175
 21
211.20706517102133
  0
LINE
  8
_1-1_
  6
CONTINUOUS
 62
    4
 10
220.8519062910168
 20
213.13891682359946
 11
221.36954438122186
 21
211.20706517102133
  0
LINE
  8
_1-1_
  6
CONTINUOUS
 62
    4
 10
220.8519062910168
 20
203.13891682359946
 11
210.8519062910168
 21
203.13891682359946
  0
TEXT
  8
_1-1_
 62
    7
 10
220.3519062910168
 20
206.51391682359946
 40
3
 41
1
 50
90
  1
10
  0
LINE
  8
_1-1_
  6
CONTINUOUS
 62
    4
 10
213.02283091591721
 20
203.13891682359946
 11
212.50519282571216
 21
205.07076847617759
  0
LINE
  8
_1-1_
  6
CONTINUOUS
 62
    4
 10
213.02283091591721
 20
203.13891682359946
 11
213.54046900612224
 21
205.07076847617759
  0
LINE
  8
_1-1_
  6
CONTINUOUS
 62
    4
 10
213.02283091591721
 20
203.13891682359946
 11
210.8519062910168
 21
203.13891682359946
  0
LINE
  8
_1-2_
  6
CONTINUOUS
 62
    6
 10
209.8519062910168
 20
188.13891682359946
 11
209.8519062910168
 21
203.13891682359946
  0
LINE
  8
_1-2_
  6
CONTINUOUS
 62
    6
 10
208.8519062910168
 20
189.13891682359946
 11
208.8519062910168
 21
202.13891682359946
  0
LINE
  8
_1-1_
  6
CONTINUOUS
 62
    4
 10
213.02283091591721
 20
208.63891682359946
 11
212.50519282571216
 21
206.70706517102133
  0
LINE
  8
_1-1_
  6
CONTINUOUS
 62
    4
 10
213.02283091591721
 20
208.63891682359946
 11
213.54046900612224
 21
206.70706517102133
  0
LINE
  8
_1-1_
  6
CONTINUOUS
 62
    4
 10
213.02283091591721
 20
203.13891682359946
 11
213.02283091591721
 21
208.63891682359946
  0
TEXT
  8
_1-1_
 62
    7
 10
212.52283091591721
 20
203.63891682359946
 40
3
 41
1
 50
90
  1
5.5
  0
LINE
  8
_1-1_
  6
CONTINUOUS
 62
    4
 10
220.8519062910168
 20
213.13891682359946
 11
188.58012020945083
 21
213.13891682359946
  0
LINE
  8
_1-1_
  6
CONTINUOUS
 62
    4
 10
213.02283091591721
 20
208.63891682359946
 11
192.02516989435887
 21
208.63891682359946
  0
LINE
  8
_1-2_
  6
CONTINUOUS
 62
    6
 10
162.8519062910168
 20
202.13891682359946
 11
162.8519062910168
 21
181.63891682359946
  0
LINE
  8
_1-2_
  6
CONTINUOUS
 62
    6
 10
162.8519062910168
 20
181.63891682359946
 11
208.8519062910168
 21
181.63891682359946
  0
LINE
  8
_1-2_
  6
CONTINUOUS
 62
    6
 10
162.8519062910168
 20
202.13891682359946
 11
208.8519062910168
 21
202.13891682359946
  0
LINE
  8
_1-2_
  6
CONTINUOUS
 62
    6
 10
208.8519062910168
 20
202.13891682359946
 11
208.8519062910168
 21
181.63891682359946
  0
LINE
  8
_1-2_
  6
CONTINUOUS
 62
    6
 10
161.8519062910168
 20
104.13891682359946
 11
209.8519062910168
 21
104.13891682359946
  0
LINE
  8
_1-2_
  6
CONTINUOUS
 62
    6
 10
209.8519062910168
 20
136.13891682359946
 11
209.8519062910168
 21
104.13891682359946
  0
LINE
  8
_1-2_
  6
CONTINUOUS
 62
    6
 10
209.8519062910168
 20
136.13891682359946
 11
161.8519062910168
 21
136.13891682359946
  0
LINE
  8
_1-2_
  6
CONTINUOUS
 62
    6
 10
161.8519062910168
 20
136.13891682359946
 11
161.8519062910168
 21
104.13891682359946
  0
LINE
  8
_1-2_
  6
CONTINUOUS
 62
    6
 10
234.1019062910168
 20
136.13891682359946
 11
256.6019062910168
 21
136.13891682359946
  0
LINE
  8
_1-2_
  6
CONTINUOUS
 62
    6
 10
256.6019062910168
 20
136.13891682359946
 11
256.6019062910168
 21
104.13891682359946
  0
LINE
  8
_1-2_
  6
CONTINUOUS
 62
    6
 10
234.1019062910168
 20
136.13891682359946
 11
234.1019062910168
 21
104.13891682359946
  0
LINE
  8
_1-2_
  6
CONTINUOUS
 62
    6
 10
266.70190629101683
 20
108.13891682359946
 11
266.70190629101683
 21
104.13891682359946
  0
LINE
  8
_1-2_
  6
CONTINUOUS
 62
    6
 10
256.70190629101683
 20
108.13891682359946
 11
266.70190629101683
 21
108.13891682359946
  0
LINE
  8
_1-1_
  6
CONTINUOUS
 62
    4
 10
277.70190629101683
 20
108.13891682359946
 11
277.70190629101683
 21
104.13891682359946
  0
LINE
  8
_1-1_
  6
CONTINUOUS
 62
    4
 10
277.70190629101683
 20
108.13891682359946
 11
277.18426820081174
 21
110.07076847617759
  0
LINE
  8
_1-1_
  6
CONTINUOUS
 62
    4
 10
277.70190629101683
 20
108.13891682359946
 11
278.21954438122185
 21
110.07076847617759
  0
LINE
  8
_1-1_
  6
CONTINUOUS
 62
    4
 10
277.70190629101683
 20
104.13891682359946
 11
277.18426820081174
 21
102.20706517102133
  0
LINE
  8
_1-1_
  6
CONTINUOUS
 62
    4
 10
277.70190629101683
 20
104.13891682359946
 11
278.21954438122185
 21
102.20706517102133
  0
LINE
  8
_1-1_
  6
CONTINUOUS
 62
    4
 10
277.70190629101683
 20
108.13891682359946
 11
267.70190629101683
 21
108.13891682359946
  0
LINE
  8
_1-1_
  6
CONTINUOUS
 62
    4
 10
277.70190629101683
 20
104.13891682359946
 11
267.70190629101683
 21
104.13891682359946
  0
TEXT
  8
_1-1_
 62
    7
 10
277.20190629101683
 20
105.38891682359946
 40
3
 41
1
 50
90
  1
4
  0
LINE
  8
_1-1_
  6
CONTINUOUS
 62
    4
 10
277.70190629101683
 20
108.13891682359946
 11
277.70190629101683
 21
112.07333161564704
  0
LINE
  8
_1-1_
  6
CONTINUOUS
 62
    4
 10
277.70190629101683
 20
104.13891682359946
 11
277.70190629101683
 21
99.615329045640436
  0
LINE
  8
_1-2_
  6
CONTINUOUS
 62
    6
 10
234.1019062910168
 20
104.13891682359946
 11
266.70190629101683
 21
104.13891682359946
  0
LINE
  8
_1-3_ADD_LINE
  6
CENTER1
 62
    7
 10
262.20190629101683
 20
109.52260170768459
 11
262.20190629101683
 21
103.01330989452536
  0
LINE
  8
_1-2_
  6
DASHED1
 62
    6
 10
264.45190629101683
 20
108.13891682359946
 11
264.45190629101683
 21
104.13891682359946
  0
LINE
  8
_1-2_
  6
DASHED1
 62
    6
 10
259.95190629101683
 20
108.13891682359946
 11
259.95190629101683
 21
104.13891682359946
  0
LINE
  8
_1-2_
  6
DASHED1
 62
    4
 10
192.8519062910168
 20
120.13891682359946
 11
192.8519062910168
 21
124.13891682359946
  0
LINE
  8
_1-2_
  6
DASHED1
 62
    4
 10
178.8519062910168
 20
120.13891682359946
 11
178.8519062910168
 21
124.13891682359946
  0
LINE
  8
_1-2_
  6
DASHED1
 62
    4
 10
178.8519062910168
 20
120.13891682359946
 11
192.8519062910168
 21
120.13891682359946
  0
LINE
  8
_1-2_
  6
DASHED1
 62
    4
 10
178.8519062910168
 20
124.13891682359946
 11
192.8519062910168
 21
124.13891682359946
  0
LINE
  8
_1-2_
  6
CONTINUOUS
 62
    6
 10
185.3519062910168
 20
161.13891682359946
 11
186.3519062910168
 21
161.13891682359946
  0
ARC
  8
_1-2_
  6
CONTINUOUS
 62
    6
 10
186.25336488551753
 20
147.93696211697198
 40
0.5
 50
216.59041666293757
 51
281.36642136727284
  0
ARC
  8
_1-2_
  6
CONTINUOUS
 62
    6
 10
186.25336488551753
 20
148.93696211697198
 40
0.5
 50
216.59041666293757
 51
281.36642136727284
  0
ARC
  8
_1-2_
  6
CONTINUOUS
 62
    6
 10
185.45044769651608
 20
148.34087153022693
 40
0.5
 50
36.590416662937571
 51
101.36642136727282
  0
ARC
  8
_1-2_
  6
CONTINUOUS
 62
    6
 10
185.45044769651608
 20
147.34087153022693
 40
0.5
 50
36.590416662937571
 51
101.36642136727282
  0
LINE
  8
_1-2_
  6
CONTINUOUS
 62
    6
 10
170.3519062910168
 20
161.13891682359946
 11
171.3519062910168
 21
161.13891682359946
  0
ARC
  8
_1-2_
  6
CONTINUOUS
 62
    6
 10
171.25336488551753
 20
147.93696211697198
 40
0.5
 50
216.59041666293757
 51
281.36642136727284
  0
ARC
  8
_1-2_
  6
CONTINUOUS
 62
    6
 10
171.25336488551753
 20
148.93696211697198
 40
0.5
 50
216.59041666293757
 51
281.36642136727284
  0
ARC
  8
_1-2_
  6
CONTINUOUS
 62
    6
 10
170.45044769651608
 20
148.34087153022693
 40
0.5
 50
36.590416662937571
 51
101.36642136727282
  0
ARC
  8
_1-2_
  6
CONTINUOUS
 62
    6
 10
170.45044769651608
 20
147.34087153022693
 40
0.5
 50
36.590416662937571
 51
101.36642136727282
  0
LINE
  8
_1-2_
  6
CONTINUOUS
 62
    6
 10
200.3519062910168
 20
161.13891682359946
 11
201.3519062910168
 21
161.13891682359946
  0
ARC
  8
_1-2_
  6
CONTINUOUS
 62
    6
 10
201.25336488551753
 20
147.93696211697198
 40
0.5
 50
216.59041666293757
 51
281.36642136727284
  0
ARC
  8
_1-2_
  6
CONTINUOUS
 62
    6
 10
201.25336488551753
 20
148.93696211697198
 40
0.5
 50
216.59041666293757
 51
281.36642136727284
  0
ARC
  8
_1-2_
  6
CONTINUOUS
 62
    6
 10
200.45044769651608
 20
148.34087153022693
 40
0.5
 50
36.590416662937571
 51
101.36642136727282
  0
ARC
  8
_1-2_
  6
CONTINUOUS
 62
    6
 10
200.45044769651608
 20
147.34087153022693
 40
0.5
 50
36.590416662937571
 51
101.36642136727282
  0
LINE
  8
_1-2_
  6
CONTINUOUS
 62
    6
 10
170.3519062910168
 20
161.13891682359946
 11
170.3519062910168
 21
148.83106495266571
  0
LINE
  8
_1-2_
  6
CONTINUOUS
 62
    6
 10
170.3519062910168
 20
147.83106495266571
 11
170.3519062910168
 21
136.13891682359946
  0
LINE
  8
_1-2_
  6
CONTINUOUS
 62
    6
 10
171.3519062910168
 20
161.13891682359946
 11
171.3519062910168
 21
148.4467686945332
  0
LINE
  8
_1-2_
  6
CONTINUOUS
 62
    6
 10
171.3519062910168
 20
147.4467686945332
 11
171.3519062910168
 21
136.13891682359946
  0
LINE
  8
_1-2_
  6
CONTINUOUS
 62
    6
 10
185.3519062910168
 20
161.13891682359946
 11
185.3519062910168
 21
148.83106495266571
  0
LINE
  8
_1-2_
  6
CONTINUOUS
 62
    6
 10
185.3519062910168
 20
147.83106495266571
 11
185.3519062910168
 21
136.13891682359946
  0
LINE
  8
_1-2_
  6
CONTINUOUS
 62
    6
 10
186.3519062910168
 20
161.13891682359946
 11
186.3519062910168
 21
148.4467686945332
  0
LINE
  8
_1-2_
  6
CONTINUOUS
 62
    6
 10
186.3519062910168
 20
147.4467686945332
 11
186.3519062910168
 21
136.13891682359946
  0
LINE
  8
_1-2_
  6
CONTINUOUS
 62
    6
 10
200.3519062910168
 20
161.13891682359946
 11
200.3519062910168
 21
148.83106495266571
  0
LINE
  8
_1-2_
  6
CONTINUOUS
 62
    6
 10
200.3519062910168
 20
147.83106495266571
 11
200.3519062910168
 21
136.13891682359946
  0
LINE
  8
_1-2_
  6
CONTINUOUS
 62
    6
 10
201.3519062910168
 20
161.13891682359946
 11
201.3519062910168
 21
148.4467686945332
  0
LINE
  8
_1-2_
  6
CONTINUOUS
 62
    6
 10
201.3519062910168
 20
147.4467686945332
 11
201.3519062910168
 21
136.13891682359946
  0
LINE
  8
_1-2_
  6
CONTINUOUS
 62
    6
 10
244.8519062910168
 20
161.13891682359946
 11
245.8519062910168
 21
161.13891682359946
  0
ARC
  8
_1-2_
  6
CONTINUOUS
 62
    6
 10
245.75336488551753
 20
147.93696211697198
 40
0.5
 50
216.59041666293757
 51
281.36642136727284
  0
ARC
  8
_1-2_
  6
CONTINUOUS
 62
    6
 10
245.75336488551753
 20
148.93696211697198
 40
0.5
 50
216.59041666293757
 51
281.36642136727284
  0
ARC
  8
_1-2_
  6
CONTINUOUS
 62
    6
 10
244.95044769651608
 20
148.34087153022693
 40
0.5
 50
36.590416662937571
 51
101.36642136727282
  0
ARC
  8
_1-2_
  6
CONTINUOUS
 62
    6
 10
244.95044769651608
 20
147.34087153022693
 40
0.5
 50
36.590416662937571
 51
101.36642136727282
  0
LINE
  8
_1-2_
  6
CONTINUOUS
 62
    6
 10
244.8519062910168
 20
161.13891682359946
 11
244.8519062910168
 21
148.83106495266571
  0
LINE
  8
_1-2_
  6
CONTINUOUS
 62
    6
 10
244.8519062910168
 20
147.83106495266571
 11
244.8519062910168
 21
136.13891682359946
  0
LINE
  8
_1-2_
  6
CONTINUOUS
 62
    6
 10
245.8519062910168
 20
161.13891682359946
 11
245.8519062910168
 21
148.4467686945332
  0
LINE
  8
_1-2_
  6
CONTINUOUS
 62
    6
 10
245.8519062910168
 20
147.4467686945332
 11
245.8519062910168
 21
136.13891682359946
  0
LINE
  8
_1-1_
  6
CONTINUOUS
 62
    4
 10
220.8519062910168
 20
104.13891682359946
 11
220.8519062910168
 21
136.13891682359946
  0
LINE
  8
_1-1_
  6
CONTINUOUS
 62
    4
 10
220.8519062910168
 20
104.13891682359946
 11
220.33426820081175
 21
106.07076847617759
  0
LINE
  8
_1-1_
  6
CONTINUOUS
 62
    4
 10
220.8519062910168
 20
104.13891682359946
 11
221.36954438122186
 21
106.07076847617759
  0
LINE
  8
_1-1_
  6
CONTINUOUS
 62
    4
 10
220.8519062910168
 20
136.13891682359946
 11
220.33426820081178
 21
134.20706517102133
  0
LINE
  8
_1-1_
  6
CONTINUOUS
 62
    4
 10
220.8519062910168
 20
136.13891682359946
 11
221.36954438122186
 21
134.20706517102133
  0
LINE
  8
_1-1_
  6
CONTINUOUS
 62
    4
 10
220.8519062910168
 20
104.13891682359946
 11
210.8519062910168
 21
104.13891682359946
  0
LINE
  8
_1-1_
  6
CONTINUOUS
 62
    4
 10
220.8519062910168
 20
136.13891682359946
 11
210.8519062910168
 21
136.13891682359946
  0
TEXT
  8
_1-1_
 62
    7
 10
220.3519062910168
 20
118.51391682359946
 40
3
 41
1
 50
90
  1
32
  0
LINE
  8
_1-1_
  6
CONTINUOUS
 62
    4
 10
220.8519062910168
 20
136.13891682359946
 11
220.8519062910168
 21
161.13891682359946
  0
LINE
  8
_1-1_
  6
CONTINUOUS
 62
    4
 10
220.8519062910168
 20
136.13891682359946
 11
220.33426820081178
 21
138.07076847617759
  0
LINE
  8
_1-1_
  6
CONTINUOUS
 62
    4
 10
220.8519062910168
 20
136.13891682359946
 11
221.36954438122186
 21
138.07076847617759
  0
LINE
  8
_1-1_
  6
CONTINUOUS
 62
    4
 10
220.8519062910168
 20
161.13891682359946
 11
220.33426820081178
 21
159.20706517102133
  0
LINE
  8
_1-1_
  6
CONTINUOUS
 62
    4
 10
220.8519062910168
 20
161.13891682359946
 11
221.36954438122186
 21
159.20706517102133
  0
LINE
  8
_1-1_
  6
CONTINUOUS
 62
    4
 10
220.8519062910168
 20
161.13891682359946
 11
210.8519062910168
 21
161.13891682359946
  0
LINE
  8
_1-1_
  6
CONTINUOUS
 62
    4
 10
161.8519062910168
 20
93.138916823599459
 11
209.8519062910168
 21
93.138916823599459
  0
LINE
  8
_1-1_
  6
CONTINUOUS
 62
    4
 10
161.8519062910168
 20
93.138916823599459
 11
163.78375794359494
 21
93.656554913804499
  0
LINE
  8
_1-1_
  6
CONTINUOUS
 62
    4
 10
161.8519062910168
 20
93.138916823599459
 11
163.78375794359494
 21
92.621278733394419
  0
LINE
  8
_1-1_
  6
CONTINUOUS
 62
    4
 10
209.8519062910168
 20
93.138916823599459
 11
207.92005463843867
 21
93.656554913804499
  0
LINE
  8
_1-1_
  6
CONTINUOUS
 62
    4
 10
209.8519062910168
 20
93.138916823599459
 11
207.92005463843867
 21
92.621278733394419
  0
LINE
  8
_1-1_
  6
CONTINUOUS
 62
    4
 10
161.8519062910168
 20
93.138916823599459
 11
161.8519062910168
 21
103.13891682359946
  0
LINE
  8
_1-1_
  6
CONTINUOUS
 62
    4
 10
209.8519062910168
 20
93.138916823599459
 11
209.8519062910168
 21
103.13891682359946
  0
TEXT
  8
_1-1_
 62
    7
 10
184.2269062910168
 20
93.638916823599459
 40
3
 41
1
 50
0
  1
48
  0
LINE
  8
_1-1_
  6
CONTINUOUS
 62
    4
 10
220.8519062910168
 20
180.63891682359946
 11
220.33426820081178
 21
182.57076847617759
  0
LINE
  8
_1-1_
  6
CONTINUOUS
 62
    4
 10
220.8519062910168
 20
180.63891682359946
 11
221.36954438122186
 21
182.57076847617759
  0
LINE
  8
_1-1_
  6
CONTINUOUS
 62
    4
 10
220.8519062910168
 20
180.63891682359946
 11
210.8519062910168
 21
180.63891682359946
  0
LINE
  8
_1-1_
  6
CONTINUOUS
 62
    4
 10
220.8519062910168
 20
180.63891682359946
 11
220.8519062910168
 21
203.13891682359946
  0
TEXT
  8
_1-1_
 62
    7
 10
220.3519062910168
 20
188.85177046710197
 40
3
 41
1
 50
90
  1
22.5
  0
CIRCLE
  8
_1-2_
  6
CONTINUOUS
 62
    6
 10
170.8519062910168
 20
191.88891682359946
 40
0.5
  0
CIRCLE
  8
_1-2_
  6
CONTINUOUS
 62
    6
 10
185.8519062910168
 20
191.88891682359946
 40
0.5
  0
CIRCLE
  8
_1-2_
  6
CONTINUOUS
 62
    6
 10
200.8519062910168
 20
191.88891682359946
 40
0.5
  0
TEXT
  8
_1-1_
 62
    7
 10
177.16088934319436
 20
168.79030637870417
 40
3
 41
1
 50
0
  1
UL1015 AWG18
  0
TEXT
  8
_1-1_
 62
    7
 10
220.3519062910168
 20
146.13891682359946
 40
3
 41
1
 50
90
  1
300
  0
TEXT
  8
_0-1_
 62
    7
 10
114.39779005524862
 20
32.01381215469614
 40
4
 41
1
 50
0
  1
同一形状品：SQT231503F,SQT250503F
  0
TEXT
  8
_0-1_
 62
    7
 10
183.54696132596683
 20
14.842541436464103
 40
4
 41
1
 50
0
  1
SQT231503F
  0
TEXT
  8
_1-2_
 62
    7
 10
183.08539794267574
 20
120.87376069283422
 40
2.5
 41
1
 50
0
  1
型式
  0
ENDSEC
  0
EOF
